Guitar Tabs, Chords and Lyrics


Ever Had  Misc. Unsigned Bands

e |-0--------------0------0------1--------0---0----1-----------|


G |-1-----------3---------1------0--------1---1-------2--------|


B |-0-------2------0------2------3--------0---2----------3-----|  x2

D |-2----1----------------2------0--------2---3-------------4--|
A |-3----------------------------2--------3---0----1-----------|
E |-x----------------------------0--------x---x----x-----------|
How[G] can we mak[D]e things righ[E]t
Whe[E]n everythin[G/B]g’s a lose fi[F]ght?
How[F] can we go [D]on
Whe[G]n there’s n[B]othing to fight[D]ing for?
How[E] can I stay[G] here alone [C]
And[C] turn again my light on?   [F]
RIT:
Sm[A]iles, tr[C]ust, lo[G]ve, te[C]ars
La[A]ughters,[C] hopes and e[G]ven fears [C]
You have always been to my side [F]
With you any lie   [G]
You make me happy when I’m sad [F]
[C]You’re the best that I’ve  [A/B]
[C]Ever Had!  [F]

Corde: Le Stessi Dell'intro

To be a best friend is a special thing
Isn’t easy try to explain even if I sing
Never be alone and lost
In this world so small

RIT:
Smiles, trust, love, tears
Laughters, hopes and even fears
You have always been to my side
With you any lie
You make me happy when I’m sad
You’re the best that I’ve
Ever Had!

Solo
e|--------------------------------------7h8p7---------------------|
B|--------------------------11-9h10p9~-------7~-------------------|
G|---7h8h9-2-5-6~-0h2h7-7-9---------------------7-7/10\8----------|
D|-6~---------------------------------------------7/10\8----------|
A|----------------------------------------------------------------|
E|----------------------------------------------------------------|


If you are my bes[F]t friend we’ll forever..
Smiles, trust, love, tears[C]
Laughters, hopes and even fears
You have always been to my side
With you any lie
You make me happy when I’m sad
You’re the best that I’ve
Ever Had!
The Best
Forever
The Best Friend that I’ve
Eve[A]r Had!
[A]Ever Had…[D]

OUTRO:
Sempre più lento
e |-0--------------0------0------1--------0---0----1-----------|
G |-1-----------3---------1------0--------1---1-------2--------|
B |-0-------2------0------2------3--------0---2----------3-----|
D |-2----1----------------2------0--------2---3-------------4--|
A |-3----------------------------2--------3---0----1-----------|
E |-x----------------------------0--------x---x----x-----------|


Important: The song above is NOT stored on the Chordie server. The original song is hosted at www.guitaretab.com. Chordie works as a search engine and provides on-the-fly formatting. Chordie does not index songs against artists'/composers' will. To remove this song please click here.

Text color:
Chord color:
Chord grids: 
Font size:    
Page size: 

A A/B B C D E F G G/B
variations - click chord images

Login - add to songbook

Transpose chords

Tuning

Rating click stars to rate

Layout
Accuracy

SHARE PAGE  




You need to log in to post comments