Guitar Tabs, Chords and Lyrics


Hey   Misc. Unsigned Bands



"Hey!" by Fresh Off the Boat
Tabbed by Kunal P. (freedoggy77@gmail.com)
DROP D TUNING

Intro-

e------------------------|
B------------------------|
G------------------------|
D--0--0--0--0--0--0--0-0-|
A----------------------0-|
D-0--0--0--0--0--0--0--0-|

e------------------------------|
B------------------------------|
G------------------------------|
D----------------------------0-|
A----------------------------0-|
D-0-4-5-7-5-4-0--0-4-5-7-5-4-0-|

Verse 1-

e-------------------------------|
B-------------------------------|
G-------------------------------|
D-0-0-0-4-4-4-5-5-5-7-7-7-7-----|
A-0-0-0-4-4-4-5-5-5-7-7-7-7-----|
D-0-0-0-4-4-4-5-5-5-7-7-7-7 x 3-|

e-----------------------|
B-----------------------|
G-7-7-7-5-5-5-4-4-2-----|
D-7-7-7-5-5-5-4-4-2-----|
A-7-7-7-5-5-5-4-4-2 x 2-|

Pre-Chorus-

e-----------------------------------------------------------------|
B-----------------------------------------------------------------|
G-----------------------------------------------------------------|
D-0-0-0-0-0-0-0-0-5-5-5-5-5-5-5-5-9-9-9-9-9-9-9-9-5-5-5-5-5-5-5-5-|
A-0-0-0-0-0-0-0-0-5-5-5-5-5-5-5-5-9-9-9-9-9-9-9-9-5-5-5-5-5-5-5-5-|
D-0-0-0-0-0-0-0-0-5-5-5-5-5-5-5-5-9-9-9-9-9-9-9-9-5-5-5-5-5-5-5-5-|

Chorus-

e----------------------------------------|
B----------------------------------------|
G----------------------------------------|
D-77777777-99999999-55555555-5555555-----|
A-77777777-99999999-55555555-5555555-----|
D-77777777-99999999-55555555-5555555 x 2-|

Bridge/Solo
e------------------------------------|
B------------------------------------|
G------------------------------------|
D----------------------------4-4-----|
A----------------------------4-4-----|
D-0-4-5-7-5-4-0--0-4-5-7-5-4-4-4 x 3-|

Verse 2-


e-------------------------------|
B-------------------------------|
G-------------------------------|
D-0-0-0-4-4-4-5-5-5-7-7-7-7-----|
A-0-0-0-4-4-4-5-5-5-7-7-7-7-----|
D-0-0-0-4-4-4-5-5-5-7-7-7-7 x 3-|

e-----------------------|
B-----------------------|
G-7-7-7-5-5-5-4-4-2-----|
D-7-7-7-5-5-5-4-4-2-----|
A-7-7-7-5-5-5-4-4-2 x 2-|

Chorus-

e----------------------------------------|
B----------------------------------------|
G----------------------------------------|
D-77777777-99999999-55555555-5555555-----|
A-77777777-99999999-55555555-5555555-----|
D-77777777-99999999-55555555-5555555 x 2-|

Outro-

e------------------------|
B------------------------|
G------------------------|
D--0--0--0--0--0--0--0-0-|
A----------------------0-|


Important: The song above is NOT stored on the Chordie server. The original song is hosted at www.guitaretab.com. Chordie works as a search engine and provides on-the-fly formatting. Chordie does not index songs against artists'/composers' will. To remove this song please click here.

This song is displayed as text-only. Transposing and tuning is only available for chordpro-songs.

Login - add to songbook

Rating click stars to rate

Layout
Accuracy

SHARE PAGE  




You need to log in to post comments