Chordie logo

A Howl To Motherwolf     Misc. Unsigned Bands



tabbed by:R.Darkness
visit-www.freewebs.com/betray the living
R.Darkness@optonline.net

ho=hammer on
p=pull off
b^=bend string up
b=bend string down
/=slide to string
h*=harmonic
t=fingertapping

    intro
1---2-3-----2-3----|
2--2-3-2-3-2-3-2-3-|
3-2-3-----2-3------|
4------------------|
5------------------|
6------------------|

1---2-3-----2-3----|
2--2-3-2-3-2-3-2-3-|
3-2-3-----2-3------|
4------------------|
5------------------|
6------------------|

1---3-4-----3-4----|
2--3-4-3-4-3-4-3-4-|
3-3-4-----3-4------|
4------------------|
5------------------|
6------------------|

1---3-4-----3-4----|
2--3-4-3-4-3-4-3-4-|
3-3-4-----3-4------|
4------------------|
5------------------|
6------------------|

1---2-3-----2-3----|
2--2-3-2-3-2-3-2-3-|
3-2-3-----2-3------|
4------------------|
5------------------|
6------------------|


    verse riff
1---------------------|
2---------------------|
3---------------------|
4---------------------|
5-9-7-----9-7-3-4-3-4-|
6-----9-7-----3-4-3-4-|

1---------------------|
2---------------------|
3---------------------|
4---------------------|
5-9-7-----9-7-3-4-3-4-|
6-----9-7-----3-4-3-4-|

 pre-chorus(rythem)
1---------------------------------|
2---------------------------------|
3---------------------------------|
4-7-7-7-7-7-7-7-7-7-7-7-7-7-7-7-7-|
5-5-5-5-5-7-7-7-7-3-3-3-3-7-9-7-8-|
6-5-5-5-5-7-7-7-7-3-3-3-3-5-6-5-6-|

 pre-chorus(lead)
1---------------|
2--------13/16b-|
3-12/14b--------| repeat 3x
4---------------|
5---------------|
6---------------|

  chorus
1-----------------|
2-----------------|
3-----------------|
4-7-7-7-7-7-7-7-7-|
5-5-5-5-5-5-5-5-5-|
6-----------------|

1-----------------|
2-----------------|
3-----------------|
4-9-9-9-9-9-9-9-9-|
5-7-7-7-7-7-7-7-7-|
6-----------------|

  riffd
1----------13b-----|
2-14---------17-19-|
3---12ho19p--------|
4------------------|
5------------------|
6------------------|

 verse
1---------------------|
2---------------------|
3---------------------|
4---------------------|
5-9-7-----9-7-3-4-3-4-|

6-----9-7-----3-4-3-4-|

 solo(3:27)
1----------------|
2-14ho12p/7b^-7b-|
3----------------|
4----------------|
5----------------|
6----------------|

1-----------------|
2------------8/10-|
3-----21ho19p-----|
4-24b^------------|
5-----------------|
6-----------------|

1-12t12t12t12t12t
2----------------|
3----------------|
4----------------|
5----------------|
6----------------|

1-12t12t12t12t12t
2----------------|
3----------------|
4----------------|
5----------------|
6----------------|

1-12t12t13t13t12t
2----------------|
3----------------|
4----------------|
5----------------|
6----------------|

1-12-14b^-----17-|
2---13--10-------|
3---------6/19---|
4----------------|
5----------------|


Important: The song above is NOT stored on the Chordie server. The original song is hosted at www.guitaretab.com. Chordie works as a search engine and provides on-the-fly formatting. Chordie does not index songs against artists/composers will. To remove this song please click here.

This song is displayed as text-only. Transposing and tuning is only available for chordpro-songs.

Rating click stars to rate

Layout
Accuracy

SHARE PAGE  

You need to log in to post comments