Guitar Tabs, Chords and Lyrics


Underneath Humanity   Misc. Unsigned Bands



split-society

                        -Underneath Humanity-
intro
guitar 1
  |----------------------------|
  |----------------------------|
  |--------------4-4-4---------|
2x|-3-3-3--3-3-3--4-4-4--2-2-2-|
  |-3-3-3--3-3-3--2-2-2--2-2-2-|
  |-1-1-1--1-1-1---------0-0-0-|

guitar2
  |-1-2-3--1-2-3---------------|
  |---------------3-4-5--------|
  |----------------------------|
2x|----------------------2-2-2-|
  |----------------------2-2-2-|
  |----------------------0-0-0-|
 verse
guitar1&2
  |----------------------------|
  |----------------------------|
  |---------------4-4-4--------|
2x|-3-3-3--3-3-3--4-4-4--2-2-2-|
  |-3-3-3--3-3-3--2-2-2--2-2-2-|
  |-1-1-1--1-1-1---------0-0-0-|
pm  . .    . .    . .    . .

chorus
guitar1
  |---------------------------------------------------|
  |---------------------------------------------------|
  |------------------4-4-4-4-4-4-4-4------------------|
  |-3-3-3-3-3-3-3-3--4-4-4-4-4-4-4-4--2-2-2-2-2-2-2-2-|
  |-3-3-3-3-3-3-3-3--2-2-2-2-2-2-2-2--2-2-2-2-2-2-2-2-|
  |-1-1-1-1-1-1-1-1-------------------0-0-0-0-0-0-0-0-|
pm  . . . . . . . .  . . . . . . . .  . . . . . . . .

guitar2
|----------------------------------------------------------------------------|
|----------------------------------------------------------------------------|
|---------------------------------------------------x17-17-17-17-------------|
|-x19-19-19-19-19-19-19-19--x17-17-17-17-17-17-17-17x17-17-17-17x17-17-17-17-|
|-x19-19-19-19-19-19-19-19--x17-17-17-17-17-17-17-17x15-15-15-15x17-17-17-17-|
|-x17-17-17-17-17-17-17-17--x15-15-15-15-15-15-15-15------------x15-15-15-15-|

solo
guitar1 and a little 2
  |-12-13-14-12-13-14-------------------16-17-18-16-17-18--------------------|
  |-------------------14-15-16-14-15-16-------------------19-19-19--19-19-19-|
  |-----------------------------------------------------------------19-19-19-|
2x|-----------------------------------------------------------------17-17-17-|
  |--------------------------------------------------------------------------|
  |--------------------------------------------------------------------------|

  |-------------------------------------0-0-0-0-0-0--------------------------|
  |--------------------------------------------------------------------------|
  |--------------------------------------------------------------------------|
2x|-----------------------------------------------------------------3-3-3----|
  |-----------------------------------------------------------------3-3-3----|
  |-----------------------------------------------------------------1-1-1----|

outro
guitar2
  |--------------------------------------------------|
  |--------------------------------------19-19-------|
3x|-------19-19-18-18-19-19--------19-19-17-17-19-19-|
  |-19-19-17-17-16-16-17-17--19-19-17-17-------17-17-|
  |-17-17--------------------17-17-------------------|


Important: The song above is NOT stored on the Chordie server. The original song is hosted at www.guitaretab.com. Chordie works as a search engine and provides on-the-fly formatting. Chordie does not index songs against artists'/composers' will. To remove this song please click here.

This song is displayed as text-only. Transposing and tuning is only available for chordpro-songs.

Login - add to songbook

Rating click stars to rate

Layout
Accuracy

SHARE PAGE  




You need to log in to post comments