Guitar Tabs, Chords and Lyrics


Pumpkin   Misc. Unsigned Bands



Okay, this is actually the rhythm guitar to a song I've written. (The lead hasn't been
yet.)I haven't decided if I should add lyrics or leave it instrumental, but let me know
it sounds.


Intro:

e|-2---2-2s3---3-3-3---2---2-2s3---3-3-3|
b|-0---0-0-0---0-0-0---0---0-0-0---0-0-0|
g|-0---0-0-0---0-0-0---0---0-0-0---0-0-0|
d|--------------------------------------|
a|--------------------------------------|
e|-2---2-2s3---3-3-3---2---2-2s3---3-3-3|

Verse:

e|---------------------|-----------------------|
b|---------------------|-----------------------|
g|-2---2-2p0-----------|--2---2-2p0------------|
d|-2---2-2---2---22-2-2|--2---2-2----2---22-2-2|
a|-----------3---33-3-3|-------------3---33-3-3|
e|---------------------|-----------------------|

e|---------------------|----------------------|
b|---------------------|----------------------|
g|---------------------|----------------------|
d|-2---2-2---2---22-2-2|--2---2-2---2---22-2-2|
a|-2---2-2p0-3---33-3-3|--2---2-2p0-3---33-3-3|
e|---------------------|----------------------|

Chorus:

e|-----------------------------------|
b|-----------------------------------|
g|-----------------------------------|
d|-3322----2---------3322----2-------|
a|-------321-3-3-3-3------321-3-3-3-3|
e|-----------------------------------|

e|-----------------|
b|-----------------|
g|-----------------|
d|-0000000000000000|
a|-3322000033220000|
e|-0000332200003322|

Repeat Verse

Chorus:

e|---------------|
b|---------------|
g|---------------|
d|-3322---3322---|
a|-----333----333|
e|---------------|

e|----------------|
b|----------------|
g|----------------|
d|0000000000000000|
a|3322000033220000|
e|0000332200003322|

Play 1st quarter of the verse an octave (12 frets) higher, then play the 4th quarter an


Important: The song above is NOT stored on the Chordie server. The original song is hosted at www.guitaretab.com. Chordie works as a search engine and provides on-the-fly formatting. Chordie does not index songs against artists'/composers' will. To remove this song please click here.

This song is displayed as text-only. Transposing and tuning is only available for chordpro-songs.

Login - add to songbook

Rating click stars to rate

Layout
Accuracy

SHARE PAGE  




You need to log in to post comments