Guitar Tabs, Chords and Lyrics


Falling For You  Misc. Unsigned Bands

[--------0---------0---|------------------]


[---------0---------0--|-------0--------0-]


[----2----------2------|---1-------1------]

[--2---2 -----2---2----|-2---2---2---2----]
[----------------------|------------------]
[----------------------|------------------]
[-------------------|-----4-4-4-4-4--2-2-2---]
[-------------------|-----5-5-5-5-5--3-3-2---]
[-2-2-2-2-2-2-1-1-1-|-----6-6-6-6-6--4-4-2---]
[-2-2-2-2-2-2-2-2-2-|-----6-6-6-6-6--4-4-2---]
[-------------------|-----4-4-4-4-4--2-2-2---]
[-------------------|-----4-4-4-4-4--2-2-2---]
i'm [A]falling without a [C#m]reason
[E]falling and i cant s[Bm]top [A]it
[Bm]suddenly i care fo[C#m]r you
[Bm]oh and now i'm starting to l[A]ov[E]e you
verse 2

why is it like this
its like i have no choice
i'll follow my heart
and give in to this love

bridge
c#m Bm
it's starting to make sense
c#m Bm
you're the one for me
a[A]nd i'll follow my [E]heart
c#m A
the heart thats fallin for you


outro:
[-0-0-0-0---------------------]
[-0-0-0-0----then c#m-Bm(2x)--]
[-2-1-2-1---------------------]
[-2-2-2-2---------------------]
[-----------------------------]
[-----------------------------]

d n n eeeeeee
[--0--]       d     o o     n n     n   e
[--0--]       d   o     o   n   n   n   e
[--2--]     d d   o     o   n    n  n   eeeeeee
[--2--]    d  d   o     o   n     n n   e
[-----]    d  d   o     o   n      nn   e
[-----]     d d     o o     n       n   eeeeeee

hope you all enjoyed the song!!

mikey bunda- 4:01am
_ _ _ _ _ this song is for you

Important: The song above is NOT stored on the Chordie server. The original song is hosted at www.guitaretab.com. Chordie works as a search engine and provides on-the-fly formatting. Chordie does not index songs against artists'/composers' will. To remove this song please click here.

Text color:
Chord color:
Chord grids: 
Font size:    
Page size: 

A Bm C#m E
variations - click chord images

Login - add to songbook

Transpose chords

Tuning

Rating click stars to rate

Layout
Accuracy

SHARE PAGE  




You need to log in to post comments