Guitar Tabs, Chords and Lyrics


Not Sure   Misc. Unsigned Bands



Guitar:1 (0:00)
E|---------------------------------------------------------------------|
B|---------------------------------------------------------------------|
G|---------------------------------------------------------------------|
D|004--5-5-5--------004----------004--7-7-7--------004--2-2-2----------|
A|---5-----------------5------------5-----------------5----------------|
E|-----------------------5-5-5-----------------------------------------|

Guitar:2 (0:00)
E|---------------------------------------------------------------------|
B|---------------------------------------------------------------------|
G|--55555-55-5-5----------------77777-77-7-7--55555-55-5-5-------------|
D|--55555-55-5-5--55555-55-5-5--77777-77-7-7--66666-66-6-6-------------|
A|--77777-77-7-7--55555-55-5-5--99999-99-9-9--77777-77-7-7-------------|


Important: The song above is NOT stored on the Chordie server. The original song is hosted at www.guitaretab.com. Chordie works as a search engine and provides on-the-fly formatting. Chordie does not index songs against artists'/composers' will. To remove this song please click here.

This song is displayed as text-only. Transposing and tuning is only available for chordpro-songs.

Login - add to songbook

Rating click stars to rate

Layout
Accuracy

SHARE PAGE  




You need to log in to post comments