Guitar Tabs, Chords and Lyrics


Funakis Return   Misc. Unsigned Bands



A nice little acoustic track from the album.
INTRO (x2)
e|--------------------------------------|
B|-7-7------------7---------6-------7-7-|
G|------7-7--7-------7---------7-7------|
D|------7-7----0--------0------7-7------|
A|-7-7------------------------------7-7-|
E|--------------------------------------|

VERSE (x4)
e|--------------------0-0----------------0-0-0-0-|
B|-7-7---0-0-0-0--0-0------7-7---1-1-1-1---------|
G|-----------------------------------------------|
D|-----------------------------------------------|
A|-7-7---3-3-3-3-----------7-7---3-3-3-3---------|
E|----------------3-3-3-3----------------3-3-3-3-|

CHORUS (x4)
e|----------------------------------9-----9----------------|
B|------------------------------------10----10-------------|
G|-0-0-0-0-2-2-2-2-4-4-4-4-9-9-9-9---------------13/6\7\13-|
D|-2-2-2-2-2-2-2-2-4-4-4-4-9-9-9-9-------------------------|
A|-2-2-2-2-0-0-0-0-2-2-2-2-7-7-7-7---------------11/4\5\11-|
E|-0-0-0-0-0-0-0-0-----------------------------------------|

VERSE (x4)
e|--------------------0-0----------------0-0-0-0-|
B|-7-7---0-0-0-0--0-0------7-7---1-1-1-1---------|
G|-----------------------------------------------|
D|-----------------------------------------------|
A|-7-7---3-3-3-3-----------7-7---3-3-3-3---------|
E|----------------3-3-3-3----------------3-3-3-3-|

CHORUS (x4)
e|----------------------------------9-----9----------------|
B|------------------------------------10----10-------------|
G|-0-0-0-0-2-2-2-2-4-4-4-4-9-9-9-9---------------13/6\7\13-|
D|-2-2-2-2-2-2-2-2-4-4-4-4-9-9-9-9-------------------------|
A|-2-2-2-2-0-0-0-0-2-2-2-2-7-7-7-7---------------11/4\5\11-|
E|-0-0-0-0-0-0-0-0-----------------------------------------|

BRIDGE
e|------------------------------------------------|
B|------------------------------------------------|
G|------------------------------------------------|
D|---2---2---2---2---0---0---0---0---0---0---2---2|
A|-0---0---0---0---2---2---2---2---4---4---4--4---|
E|------------------------------------------------|

e|------------------------------------------------------------------|
B|------------------------------------------------------------------|
G|-9-9-9-9-4-4-4-4-6-6-6-6----------9-9-9-9-4-4-4-4-6-6-6-6---------|
D|-9-9-9-9-4-4-4-4-6-6-6-6-7-7-7-7--9-9-9-9-4-4-4-4-6-6-6-6-7-7-7-7-|
A|-7-7-7-7-2-2-2-2-4-4-4-4-7-7-7-7--7-7-7-7-2-2-2-2-4-4-4-4-7-7-7-7-|
E|-------------------------5-5-5-5--------------------------5-5-5-5-|

CHORUS (x4)
e|----------------------------------9-----9----------------|
B|------------------------------------10----10-------------|
G|-0-0-0-0-2-2-2-2-4-4-4-4-9-9-9-9---------------13/6\7\13-|
D|-2-2-2-2-2-2-2-2-4-4-4-4-9-9-9-9-------------------------|
A|-2-2-2-2-0-0-0-0-2-2-2-2-7-7-7-7---------------11/4\5\11-|
E|-0-0-0-0-0-0-0-0-----------------------------------------|

INTRO (x4)
e|--------------------------------------|
B|-7-7------------7---------6-------7-7-|
G|------7-7--7-------7---------7-7------|
D|------7-7----0--------0------7-7------|
A|-7-7------------------------------7-7-|
E|--------------------------------------|

There we go nice and easy. Enjoy! if you have any questions email me at 


Important: The song above is NOT stored on the Chordie server. The original song is hosted at www.guitaretab.com. Chordie works as a search engine and provides on-the-fly formatting. Chordie does not index songs against artists'/composers' will. To remove this song please click here.

This song is displayed as text-only. Transposing and tuning is only available for chordpro-songs.

Login - add to songbook

Rating click stars to rate

Layout
Accuracy

SHARE PAGE  




You need to log in to post comments