Guitar Tabs, Chords and Lyrics


Vil Du Vrra Med M Hjem I Natt  Misc. Unsigned Bands



---2-2-2-0---------2-0-|-0-0-0-----------------|

------------3-2-0------|-------3-2-0-----4/5-3-|
-----------------------|--------------2--------|
-----------------------|-----------------------|
-----------------------|-----------------------|
-----------------------|-----------------------|
--2-2-2-0---------2-0-|-----------------------|
-----------3-2-0------|--3-2-3----------------|
----------------------|-----------------------|
----------------------|-----------------------|
----------------------|-----------------------|
----------------------|-----------------------|
--2---2---3---3-5-7-5--5-3-2-3-3-2-0-|
--3---3---3--------------------------|
--2---2---2--------------------------|
-------------------------------------|
-------------------------------------|
-------------------------------------|
[D]Fæsten' e' snart o[G]ver,
det blir sti[A]lle mørkt og tri[D]st
[Bm]musikken ebbe'[Em] ut
og aill' går [A]hjem til sitt.
Men nå'[D]n ska' på et
[G]nachapiel,
og dem t[A]ræng en gi[D]tarist
men æ'[Bm] e' villt fo[Em]relska' i
ei da[A]me æ' ska' [D]spør:
Refr.

Vil du værra' me' mæ'
[G]hjem i [A]natt,
ska vi sov' i samme [D]seng
i na[Bm]tt,
æ' kainn' gi dæ' alt du t[Em]ræng'
i na[A]tt- hvis du [D]tør!

Å' værra' me' mæ' h[G]jem i
[A]natt, å'sov' i samme s[D]eng
i na[Bm]tt
æ' kainn' gi dæ' alt du tr[G]æng'
i n[A]att - hvis du t[D]ør!

[D]Kjære lille [G]søte du
æ [A]e' så glad i d[D]æ,
skal [Bm]vi dra hjæm te [Em]
å ta ei f[A]laske vin?
Men [D]du ska' på et n[G]ach-spiel
og dem' t[A]ræng' en [D]gitarist,
[Bm] æ' bli me' å ve[Em]nte'
i nån' t[A]ima'
fær æ' [D]spør:
Refr.

Vil du værra' me' mæ'
[G]hjem i [A]natt,
ska vi sov' i samme [D]seng
i na[Bm]tt,
æ' kainn' gi dæ' alt du t[Em]ræng'
i na[A]tt- hvis du [D]tør!

Å' værra' me' mæ' h[G]jem i
[A]natt, å'sov' i samme s[D]eng
i na[Bm]tt
æ' kainn' gi dæ' alt du tr[G]æng'
i n[A]att - hvis du t[D]ør!

Stikk;
H[C]vis æ' spør - Oh, oh, o[D]h
og hvis du [C]tør
Oh, oh, [D]oh oh,
[G]alt æ' vil, vil æ' me' d[D]æ'       [F#m]
[Em]Hvis du vil bli me' mæ' i
n[A]att.

Important: The song above is NOT stored on the Chordie server. The original song is hosted at www.guitaretab.com. Chordie works as a search engine and provides on-the-fly formatting. Chordie does not index songs against artists'/composers' will. To remove this song please click here.

Text color:
Chord color:
Chord grids: 
Font size:    
Page size: 

A Bm C D Em F#m G
variations - click chord images

Login - add to songbook

Transpose chords

Tuning

Rating click stars to rate

Layout
Accuracy

SHARE PAGE  




You need to log in to post comments