Guitar Tabs, Chords and Lyrics


Locked Inside  Misc. Unsigned Bands

-------------------------------------------------------------------------------



-------------------------------------------------------------------------------

E|---------------------------------------------------------------------------|
B|---------------------------------------------------------------------------|
G|---------------------------------------------------------------------------|
D|---------------------------------------------------------------------------|
A|-------------------------------------------------------------0-12-12-0-10--|
E|0-12-12-0-10--0-12-12-0-10-7---0-12-12-0-10--0-12-12-0-10-7----------------|
E|-----------------------------------------------------0-12-12-0-10--0-12-12-|
B|---------------------------------------------------------------------------|
G|---------------------------------------------------------------------------|
D|---------------------------------------------------------------------------|
A|-0-12-12-0-10-7------------------------------------------------------------|
E|-------------------0-12-12-0-10—-0-12-12-0-10-7----------------------------|
E|-0-10-7--0-12-12-0-10--0-12-12-0-10-7-5----5--7-8-7-5---3------------------|
B|-----------------------------------------8---------------------------------|
G|---------------------------------------------------------------------------|
D|---------------------------------------------------------------------------|
A|---------------------------------------------------------------------------|
E|---------------------------------------------------------------------------|
[G]Anot[Em]her Day and[D] I’m up before d[C]awn
[G]From the t[Em]ime I get up th[D]e pressure’s always [C]on
[G]It’s always b[Em]een there the fu[D]tures always n[C]ow
[G]Perfection[Em] is what is expected but for m[D]e I don’t know [C]how
[G]And I a[D]long with mi[A]llions mo[C]re
[G]am feeling the pr[D]essure a[A]t my d[C]oor
[G]and its so th[D]ick I can ba[A]rely st[D]and
[G]but theres no re[D]medy cl[A]ose at ha[C]nd
[G]Theres no re[D]medy cl[Am]ose at h[Em]and
Chorus
Cuz I’m tra[Am]pped in [Em]my o[D]wn small ce[C]ll
[Am]Like a pe[Em]rson conde[D]mned to h[C]ell
[Am]But I see the k[Em]ey it’s f[D]lying above [C]me
And if I m[Am]ake it to the n[Em]ext level m[D]aybe I’ll be fr[C]ee

Cuz I’m tra[Am]pped in [Em]my o[D]wn small ce[C]ll
[Am]Like a pe[Em]rson conde[D]mned to h[C]ell
[Am]But I see the k[Em]ey it’s f[D]lying above [C]me
And if I m[Am]ake it to the n[Em]ext level m[D]aybe I’ll be fr[C]ee e[D]ee e[G]ee.

Bridge
[G]And I don’t wa[C]nt anythi[D]ng no mo[C]re
[G]I just wa[C]nna be l[D]eft alo[G]ne
[G]And after a w[C]hile ma[D]ybe ill [C]see
[G]If what comes o[C]ut is the [D]real true [C]me

Chorus

Important: The song above is NOT stored on the Chordie server. The original song is hosted at www.guitaretab.com. Chordie works as a search engine and provides on-the-fly formatting. Chordie does not index songs against artists'/composers' will. To remove this song please click here.

Text color:
Chord color:
Chord grids: 
Font size:    
Page size: 

A Am C D Em G
variations - click chord images

Login - add to songbook

Transpose chords

Tuning

Rating click stars to rate

Layout
Accuracy

SHARE PAGE  




You need to log in to post comments