Guitar Tabs, Chords and Lyrics


2nd Song   Misc. Unsigned Bands



----------------------------------------------------------------------------
			  2nd song(untitled)    - emergency exit
----------------------------------------------------------------------------
this is my band and we haven't named any of the songs yet, but please use the music for 
but do not ripp it off as your own!!

Tabbed by: David Mumford
Email: mr_tiddles_3@hotmail.com

Tuning: eBGDAE (normal)

Intro:

e|-3-0----------------------------------------------------------------------|
B|------3-0-----------------------------------------------------------------|
G|-----------3b-0-3-2-------------------------------------------------------|
D|----------------------5----5-5----5-5----5-5-5-5--------------------------|
A|----------------------5----5-5----5-5----5-5-5-5--------------------------|
E|----------------------3----3-3----3-3----3-3-3-3--------------------------|

Verse:

e|-00000----33333-------------------------|---|
B|-33333----33333-------------------------|---|
G|-22222----00000-------22222-------------|X 3|
D|----------------------22222----22222----|---|
A|----------------------00000----22222----|---|
E|-------------------------------00000----|---|


Sorry but the chorus is still being written and so is the lyrics , i'll try and post the 
of the music once we've finished :D

| /  slide up
| \  slide down
| h  hammer-on
| p  pull-off
| ~  vibrato
| +  harmonic
| x  Mute note
| b  bend note
============================================================================


Important: The song above is NOT stored on the Chordie server. The original song is hosted at www.guitaretab.com. Chordie works as a search engine and provides on-the-fly formatting. Chordie does not index songs against artists'/composers' will. To remove this song please click here.

This song is displayed as text-only. Transposing and tuning is only available for chordpro-songs.

Login - add to songbook

Rating click stars to rate

Layout
Accuracy

SHARE PAGE  




You need to log in to post comments