Guitar Tabs, Chords and Lyrics


Moon Dance   Misc. Unsigned Bands



Artist: Frozen Over
Album:Sub Zero
Song: Moon Dance
Tabbed By: Harley Oliver

Tuning:Eb Ab Db Gb Bb eb

Intro:
Gtr 
|---------------------------------------------|
|---------------------------------------------|
|----------5-----------------------------777--|    x2
|-2-xxx-5-xxx-5-xxx-777-2-xxx-5-xxx-7-xxx-777-|
|-2-xxx-3-xxx-5-xxx-777-2-xxx-5-xxx-7-xxx-555-|
|-0-xxx---xxx-3-xxx-555-0-xxx-3-xxx-5-xxx-------|

Gtr II
|-------------------------------------------------|
|-------------------------------------------------|
|-4----6----8----10-10-10-4----6----8----12-12-12-|   x2
|-4----6----8----10-10-10-4----6----8----12-12-12-|          
|-2----4----6----8--8--8--2----4----6----10-10-10-|
|-------------------------------------------------|

Verse:
Gtr I

|-------------------------|
|-------------------------|
|-------------------------|
|-2-222-2-222-5-555-7-777-|   x4
|-2-222-2-222-5-555-7-777-|
|-0-000-0-000-3-333-5-555-|

Gtr II
|-----------------------|
|-----------------------|
|-----------------------|
|-0-000-0-000-3-333/5-5-|
|-0-000-0-000-3-333/5-5-|
|-0-000-0-000-3-333/5-5-|

Chorus:

Gtr I
|---------------------|
|---------------------|
|-7-xxx---------------|    x4
|-7-xxx-7-xxx-9-xxx-5-|
|-5-xxx-7-xxx-9-xxx-5-|
|-------5-xxx-7-xxx-3-|

Gtr II
|----------------------|
|----------------------|
|-77-xx----------------|    x4
|-77-xx-77-xx-99-xx-55-|
|-55-xx-77-xx-99-xx-55-|
|-------55-xx-77-xx-33-|

play verse x2

play chorus x3

Outro:
Both Gtrs
|---------------------|
|---------------------|
|-7777----------------|  x4
|-7777-7777-9999-5555-|
|-5555-7777-9999-5555-|
|------5555-7777-3333-|

End on:
|------|
|------|
|------|
|-5~-|
|-5~-|
|-3~-|



Important: The song above is NOT stored on the Chordie server. The original song is hosted at www.guitaretab.com. Chordie works as a search engine and provides on-the-fly formatting. Chordie does not index songs against artists'/composers' will. To remove this song please click here.

This song is displayed as text-only. Transposing and tuning is only available for chordpro-songs.

Login - add to songbook

Rating click stars to rate

Layout
Accuracy

SHARE PAGE  




You need to log in to post comments