Guitar Tabs, Chords and Lyrics


K Squirrell   Misc. Unsigned Bands



Tuning:

Intro:
e|-------------------------------------|
B|-------------------------------------|
G|-------------------------------/-8-8-|
D|-8-8-8-8-\-0-0-0-0-\-5-5-\-3-3-/-8-8-|
A|-8-8-8-8-\-0-0-0-0-\-5-5-\-3-3-/-6-6-|
E|-6-6-6-6-\-5-5-5-5-\-3-3-\-1-1-------|

Verse:
e|---------------------------|
B|---------------------------|


Important: The song above is NOT stored on the Chordie server. The original song is hosted at www.guitaretab.com. Chordie works as a search engine and provides on-the-fly formatting. Chordie does not index songs against artists'/composers' will. To remove this song please click here.

This song is displayed as text-only. Transposing and tuning is only available for chordpro-songs.

Login - add to songbook

Rating click stars to rate

Layout
Accuracy

SHARE PAGE  




You need to log in to post comments