Guitar Tabs, Chords and Lyrics


Saved   Misc. Unsigned Bands



TUNING: STANDARD

Chords: Bm Gb Em E G Em D Em

INTRO  (THIS IS THE ONLY PART WHERE BOTH GUITARS ARE NOT STRUMMING)
GUITAR 1 DURING INTRO:

Bm  Gb  Em  E  G  Em  D  Em

G1 will be strumming chord whild G2 is hitting notes at the same time
(so, G1 hits Bm 6 times then Gb 6 times etc.)

GUITAR 2 DURING INTRO:
    Bm----------   Gb---------   Em---------   E-------------|
E:|--------------|-------------|-------------|---------------|
B:|-------3------|-------------|-------------|---------------|
G:|-----4---4----|-------3-----|-------0-----|-------1-------|
D:|---4-------4--|-----4---4---|-----2---2---|-----2---2-----|
A:|-2------------|---4-------4-|---2-------2-|---2-------2---|
E:|--------------|-2-----------|-0-----------|-0-------------|

    G-----------   Em---------   D----------   Em------------|
E:|--------------|-------------|-------------|---------------|
B:|--------------|-------------|-------------|---------------|
G:|--------------|-------------|-------------|---------------|
D:|--------------|-------------|-------------|---------------|
A:|--------------|-------------|-------------|---------------|
E:|--------------|-------------|-------------|---------------|

Guitar 1:   this is the strumming pattern for G1
DUUDUUDUD
  x  x      

Important: The song above is NOT stored on the Chordie server. The original song is hosted at www.guitaretab.com. Chordie works as a search engine and provides on-the-fly formatting. Chordie does not index songs against artists/composers will. To remove this song please click here.

This song is displayed as text-only. Transposing and tuning is only available for chordpro-songs.

Login - add to songbook

Rating click stars to rate

Layout
Accuracy

SHARE PAGE  




You need to log in to post comments