Guitar Tabs, Chords and Lyrics


The Graduate  Misc. Unsigned Bands

E --------3-----------3---------------2--------2----------------|


B ------------3----------3-----3----------3--------3-------3----|


G ----0-----------0---------0------0----------0---------0-------|

D --------------------------------------------------------------|(x3)
A --------------------------------------------------------------|
E --------------------------------------------------------------|
E -------------3-----------------------------------------------|
B -------0--------0----0---------------------------------------|
G -----2-------------2-----------------------------------------|
D ---1------1--------------2-(let ring)------------------------|
A -------------------------------------------------------------|
E -------------------------------------------------------------|
    [C]     Everything [Em]went d[D]own,
         You thought you would'nt [G/B]fall ap[C]art,
         You thought you were [G/B]so str[Am7]ong,
         It turns out you were nothing that you th[D]ought you could [C]be,
         And everything's [Em]so d[D]umb,
         Cause you thought it wouldn't[G/B] be that [C]way,
    [C]    [G/B] And n[Asus]ow I'm fading...
Pre chorus riff:
E ---------------------------|
B -------0-------0-----------|
G -----0---0---0---0---------|
D ---2-------2---------------|
A ---------------------------|
E ---------------------------|


Chorus:

  [C]     Could you consider the fact that I,
       Might be slightly worn down from this [Em]nonsense,
       And would you sl[G/B]aughter me down like theres
       Nothing from no one a[C]round...

Could you consider the fact that I,
       Might be slightly worn down from this [Em]nonsense,
       And would you sl[G/B]aughter me down like theres
(C Em C Em)x2
Nothing from no one around...

Instrumental:
(just the beginning part, I'm not that good!)

E ------------------------------------------------|
B ---------8--------7-------5--------7------------|
G -----------7--------7-------5-------------------|
D ------------------------------------------------|
A --5-/-7-------5--------3--------5---------------|
E ------------------------------------------------|



   [C]        Chances are we'll run away,
So so far away from here,

Just give me a big black symbol.
   [Em]        You will never remember how,

To tear all my feelings down,
           So give me the keys to your s[C]oul (x2)

Chord changeup in chorus;
        [C]   Could you consider the fact that [D]I,
           Might be slightly run down from this[Em] nonsense,
           And would you s[G/B]laughter me down like there's,
           Nothing from no one a[C]round   (x2)


        [C]   A[Em]rouuu[C]uuuu[Em]uuuun[C]d! [Em]     [C]   [Em]
Chords:
*chose your own variation, but this is how I do it*

        [C]          [Em]          [D]        [G/B]        [Am7]        [Asus]                   
E -------x----------7--------5--------3-------3--------3----------|
B -------1----------5--------3--------0-------1--------2----------|
G -------0----------0--------0--------0-------0--------2----------|
D -------x----------x--------x--------x-------2--------2----------|
A -------3----------7--------5--------2-------0--------0----------|
E -------x----------0--------0--------x-------x--------x----------|				


Important: The song above is NOT stored on the Chordie server. The original song is hosted at www.guitaretab.com. Chordie works as a search engine and provides on-the-fly formatting. Chordie does not index songs against artists'/composers' will. To remove this song please click here.

Text color:
Chord color:
Chord grids: 
Font size:    
Page size: 

Am7 Asus C D Em G/B
variations - click chord images

Login - add to songbook

Transpose chords

Tuning

Rating click stars to rate

Layout
Accuracy

SHARE PAGE  




You need to log in to post comments