Guitar Tabs, Chords and Lyrics


Wanland   Misc. Unsigned Bands



GO TO THIS WEBSITE TO LISTEN TO THE SONG http://www.thegnome.zoomshare.com/2.html

Second guitar can play chord on intro      

  INTRO
   C   D             A G G  guitar 2 plays along the rest of the intro
e|--------------------------------------------------------------|
B|-3-3-1-1------0-0---------3-1-3-1-1-0-1-0-----3-3-1-1-0-------|
G|--0-0-0-0-(x3)-0-0-2-0-0--0-0-0-0-0-0-0-0-(x2)0-0-0-0-0--2-0-0|
D|--------------------------------------------------------------|
A|--------------------------------------------------------------|
E|--------------------------------------------------------------|
   
 CHORUS
  (D) (Am)  (C) (G)
e|-2-2--0-0--0-0--1------------------------------------|
B|-3-3--1-1--1-1--0------------------------------------|
G|-2-2--2-2--0-0--0---(x10)----------------------------|
D|-0-0--2-2--2-2--2------------------------------------|
A|-0-0--0-0--3-3--3------------------------------------|
E|-----------------------------------------------------|

    extro part 1
e|------------------------------------------------------------------------|
B|-12-12-13-13-15-15-13-13--12-12-12-12-13-13-13-13-15-15-15-15-13--------|
G|---0--0--0--0--0--0--0--0--0--0--0--0--0--0--0--0--0--0--0--0--0-14-12--|
D|------------------------------------------------------------------------|
A|------------------------------------------------------------------------|
E|------------------------------------------------------------------------|

    extro part 2
e|-----------------------------------------------------|
B|-0-0-1-1-3-3--0-0-0-0-1-1-1-1-2-2-2-2----------------|
G|--0-0-0-0-0-0-0-0-0-0-0-0-0-0-0-0-0-0-2-0-0----------|
D|-----------------------------------------------------|
A|-----------------------------------------------------|
E|-----------------------------------------------------|

    exrto part 1 and 2 are played at the same time


Important: The song above is NOT stored on the Chordie server. The original song is hosted at www.guitaretab.com. Chordie works as a search engine and provides on-the-fly formatting. Chordie does not index songs against artists'/composers' will. To remove this song please click here.

This song is displayed as text-only. Transposing and tuning is only available for chordpro-songs.

Login - add to songbook

Rating click stars to rate

Layout
Accuracy

SHARE PAGE  




You need to log in to post comments