Guitar Tabs, Chords and Lyrics


The Pick Of Destiny   Misc. Unsigned Bands



This is the story of The Pick of Destiny


  intro guitar 1
e|-----------------------------------------------------|
B|----------3---3-----3---3-----3---3-----3---3--------|
G|----------------0---------0--------0---------0-------|
D|--------------------------------------0---0----------|(x3)
A|--------3---3------2---2-----0---0-------------------|
E|-----------------------------------------------------|
  after the 2nd guitar plays its part the 1st comes in


   intro guitar 2
e|-----------------------------------------------------|
B|-----------------------------------------------------|
G|-----------------------------------------------------|
D|-----------------------------------------------------|
A|-3(x16)----------------------------------------------|
E|-----------------------------------------------------|


  Verse 1
   C     Am        E       G
e|-------------------------1-1-1-1---------------------|
B|-1-1-1-1-1-1-1-1---------0-0-0-0---------------------|
G|-0-0-0-0-2-2-2-2-1-1-1-1-0-0-0-0---------------------| (X4)
D|-2-2-2-2-2-2-2-2-2-2-2-2-0-0-0-0---------------------|
A|-3-3-3-3---------2-2-2-2-2-2-2-2---------------------|
E|-------------------------3-3-3-3---------------------|


  Chorus guitar 2
e|----------------------------------------------------------------|
B|----------------------------------------------------------------|
G|-------------------------------------------------0-0-0-0-0-0-0-0|
D|-5-5-5-5-5-5-5-5---------------------------------5-5-5-5-5-5-5-5|(x22)
A|-3-3-3-3-3-3-3-3-2-2-2-2-2-2-2-2-0-0-0-0-0-0-0-0----------------|
E|-----------------0-0-0-0-0-0-0-0-5-5-5-5-5-5-5-5----------------|


The first guitar comes in playing the first guitar intro after the chorus is played two 
by the second guitar.
 The intro will be played 12 times.  After the Chorus is played 9 times it stops playing
the intro is still playing and the second guitar will turn on distortion. It will come
in after the intro is played once and play the chorus 3 more times with the intro part 
hit the solo.

  solo
e|-------------------------------------------------------------|
B|-3-1---------------------------------------------------------|
G|-----2-0-2-0-------------------------------------------------|
D|-------------3-0-3-2-0--------------------------------2-3-2--|
A|-----------------------3-2-0--------------------0-2-3-------3|
E|-----------------------------3--0-0-3-0-0-0-3-0--------------|

e|---------------------------------------------------------|
B|---------------------------------------------------------|
G|---------------------------------------------------------|
D|-3-2-0-3-2-0-3-2-0--------------------------------2-3-2--|
A|-------------------3-2-0--------------------0-2-3-------3|
E|-------------------------3--0-0-3-0-0-0-3-0--------------|

e|---------------------------------------------------------|
B|-3-1-----------------------------------------------------|
G|-----2-0-2-0---------------------------------------------|
D|-------------3-0-3-2-0-----------------------------------|
A|-----------------------3-2-0-----------------------------|
E|-----------------------------3---------------------------|


ONCE agan the guitar 1 and two will be playing together, but after the chorus is played 
Guitar 1 with the intro and #2 with the chorus
 The will do this together for 10 more times.  At the end the first guitar will hold out 
C chord



Important: The song above is NOT stored on the Chordie server. The original song is hosted at www.guitaretab.com. Chordie works as a search engine and provides on-the-fly formatting. Chordie does not index songs against artists'/composers' will. To remove this song please click here.

This song is displayed as text-only. Transposing and tuning is only available for chordpro-songs.

Login - add to songbook

Rating click stars to rate

Layout
Accuracy

SHARE PAGE  




You need to log in to post comments