Guitar Tabs, Chords and Lyrics


These Two Shots   Misc. Unsigned Bands



These Two Shots - Rifle(Not the Handgun)
Tabbed by:travis__002
Email:travis__002@hotmail.com

Tuning: Drop D

Guitar 1
E|----|------------------------------------|
B|----|------------------------------------|Mild Distortion
G|----|-----------------------------5*-----|
D|--1-|-77-77--10-10--55-55-55-55----------|x4
A|--1-|-xx-xx--xx-xx--xx-xx-xx-xx----------|
D|--1-|-55-55--88-88--33-33-33-33----------|

Guitar 2
E|--13-12-10-8----10h11/8----10h11p10h11/13----|
B|---------------------------------------------|
G|---------------------------------------------|Comes in on the third
D|---------------------------------------------|time and repeats twice
A|---------------------------------------------|
D|---------------------------------------------|

Both Guitars
E|--------------------------------------------------|
B|--------------------------------------------------|
G|--------------------------------------------------|
D|--55-55--55-55--33-33--33-33--00-00--00-00--------|
A|--xx-xx--xx-xx--33-33--33-33--00-00--00-00--------|
D|--33-33--33-33--33-33--33-33--00-00--00-00-12/----|

Both Guitars
E|-----------------------------|------------------------|
B|-----------------------------|------------------------|Turn On Heavy
G|-----------------------------|------------------------|Distortion
D|----------------00-00--00-00-|------0------------1----|x3
A|----------------00-00--00-00-|------0------------1----|
D|--00-00--00-00--00-00--00-00-|-00-0-0-00-0-3h4p0-1----|
  PM.. ..  .. ..  .. ..  .. ..   .. .   .. .

Both Guitars
E|--------------------------------------|
B|--------------------------------------|
G|--------------------------------------|
D|-------0-------------1---1-1-1--0~----|
A|-------0-------------1---1-1-1--0~----|
D|--00-0-0--00-0-3h4p0-1---1-1-1--0~----|
  PM.. .    .. .           . . . 

| /  slide up
| \  slide down
| h  hammer-on
| p  pull-off
| ~  vibrato
| *  harmonic
| x  Mute note
=======================================================================


Important: The song above is NOT stored on the Chordie server. The original song is hosted at www.guitaretab.com. Chordie works as a search engine and provides on-the-fly formatting. Chordie does not index songs against artists'/composers' will. To remove this song please click here.

This song is displayed as text-only. Transposing and tuning is only available for chordpro-songs.

Login - add to songbook

Rating click stars to rate

Layout
Accuracy

SHARE PAGE  




You need to log in to post comments