Guitar Tabs, Chords and Lyrics


The Chinese Song   Misc. Unsigned Bands



-------------------------------------------------------------------------------
	The Chinese Song- The Kinky Kangaroos
-------------------------------------------------------------------------------
Tabbed by: Adam Paulus
Email: adman_footballfan_2010@yahoo.com

Tuning: Standard EADGBe
 Hey if you are reading this you must be bored because were not famous yet but if we do
famous then you will know that Adam Paulus the amazing guitarist for The Kinky Kangaroos
his own songs. Well here is the song It rocks and don’t steal this crap because We wrote 
song and if you get big on it that will suck.

Intro

e|----5--5- 5 5 ---3--3--0--0--3---------5--5-5-5—3--3--0--0--3-|
B|----5- 5  5-5- --3--3--0--0--3-------5--5-5-5---3--3--0--0--3-|
G|--------------------------------------------------------------|
D|--------------------------------------------------------------|
A|--------------------------------------------------------------|
E---------------------------------------------------------------|
                                       Hoyyyyy YAH
e|---5--5-5-5----3-3----0--0----3-------5-5-5-5-----3--3----0- 0----3--|
B|---5--5-5-5----3-3----0--0----3-------5-5-5-5-----3--3----0--0----3--|
G|---6--6-6-6----4-4----1--1----4-------6-6-6-6-----4--4----1--1-- -4--|
D|---7--7-7-7----5-5----2--2----5-------7-7-7-7-----5--5----2--2-- -5 -|
A|---7--7-7-7----5-5----2--2----5-------7-7-7-7-----5--5----2--2----5- |
E|---5--5-5-5----3-3----0--0----3-------5-5-5-5-----3--3----0--0----3- |
Verses
e|----x-x-x-5-5-x---x---5-5-5-5---x--x--5-5-x--3--3---0-|
B|----x-x-x-5-5-x---x---5-5-5-5---x--x--5-5-x--3--3--0--|
G|---x-x-x--6-6-x---x---6-6-6-6---x--x- 6-6-x--4--4--1--|   repeat X7
D|---x-x-x--7-7--x--x---7-7-7-7---x--x--7-7-x--5--5--2  |
A|---x-x-x--7-7--x--x---7-7-7-7---x--x--7-7-x--5--5--2--|
E|---x-x-x--5-5--x--x---5-5-5-5---x--x--5-5-x--3--3--0--|

Chorus

e|--3-3  3-3--3--3--x-x-x-x-x-x-3-3-3-3-3-3-x-x-x-x-------|
B|--3 3  3-3--3--3--x-x-x-x-x-x-3-3-3-3-3-3-x-x-x-x-------|
G|--4-4--4-4--4--4--x-x-x-x-x x--4-4 4 4 4-4-x x-x-x------|  do that
D|--5-5--5-5--5--5--x-x-x-x-x-x--5-5-5-5-5 5-x-x-xx------ |  twice
A|--5-5--5--5-5--5--x-x-x-x-x-x--5-5-5-5-5-5-x-x-x-x------|
E|--3-3--3--3-3--3--x-x-x-x-x-x--3-3-3-3-3-3-x-x-x-x------|

e|-----5-5-5-5--3-3---0-0--3---------- ------------------|
B|-----5 5-5-5--3-3---0-0--3-----------------------------|
G|-----4-4-4-4--4-4---1-1--4-----------------------------|   I’m getting
D|-----7-7-7-7--5-5---2-2--5  ---------------------------|  lazy do that
A|-----7-7-7-7--5-5---2-2--5-----------------------------|      twice
E|-----5-5-5-5--3-3---0-0--3-----------------------------|
Verse
Chorus
That Intro thingy then
A ripping solo Chinese style which I just can’t find enough time to tab that beast out.
Then Verse Chorus where it comes to an end


Sweet Song, Drugged up lyrics except we don’t take drugs we are just crazy in the head.
anyone wants to sign us to a multi-million dollar contract that will be great just
me on the email above of course I am joking but if you really want to that is me real 
address. Thanks for stopping by and learning some Kinky Kangaroos.


Now that’s basically it three chords sorry for the lack of diversity but hey it sounds
sweet when we play it. Here are the lyrics.

The Chinese Song


Verse 1
Lava Lamps, Microphones, Holy pants, I don’t know
Tire tracks, Fish fillets, Yellow snow, Chevrolets
Fire hydrants, Blue paint, Sales people, Your mom’s no saint
VCR's and, DVD’s, Hairy arms, Garglefleas

Chorus
This is the Chinese song, gong hoha
This is the Chinese song, about nothin'
This is the Chinese song, gong hoha
This is the Chinese song (gong)

Verse 2
Chocolate cake, Wolverines, Vanilla rakes, Jelly Beans
Latin Music, Adidas hats, TLC, We like Snacks
Mr. Bean dance, Music Stands, Xbox Live, Red Crayons
Pin Statues, Lollipops, Chrome Pipes, Droopy Mops



Important: The song above is NOT stored on the Chordie server. The original song is hosted at www.guitaretab.com. Chordie works as a search engine and provides on-the-fly formatting. Chordie does not index songs against artists'/composers' will. To remove this song please click here.

This song is displayed as text-only. Transposing and tuning is only available for chordpro-songs.

Login - add to songbook

Rating click stars to rate

Layout
Accuracy

SHARE PAGE  




You need to log in to post comments