Guitar Tabs, Chords and Lyrics


Unfinished Symphony   Misc. Unsigned Bands



BAND:ROSEWOOD
SONG:UNFINISHED SYMPHONY

Intro           Last time go straight into verse here
|---------------[------------------------------|
|---------------[------------------------------|
|---------------[------------------------------|  x 4
|-2--2----------[-2--2-------------------------|  
|-2--2----------[-2--2-------------------------|
|-0--0----3-4-5-[-0--0----3-4-5----------------| 
Verse
|----------------------------------------------|
|----------------------------------------------|
|----LET RING----------------------------------|( just play about with 
|-2--------------------------------------------| harmonics etc)
|-2--------------------------------------------|
|-0--------------------------------------------| 
Intro to Chorus
|----------------------------------------------|\
|----------------------------------------------| \
|----------------------------------------------|  \
|-2--2------------2--2-------------------------|   \
|-2--2----7-6-5---2--2----7-6-5----------------|    \
|-0--0------------0--0-------------------------|     \ 
                                                   GUITAR 1 
|----------------------------------------------|     /
|----------------------------------------------|    /
|-------------------LET RING-------------------|   /
|-2--2------------2----------------------------|  /
|-2--2----7-6-5---2----------------------------| /
|-0--0------------0----------------------------|/ 
Intro to chorus
|----------------------------------------------|\
|----------------------------------------------| \
|----------------------------------------------|  \
|-2--2------------2----------------------------|   \
|-2--2------------2----------------------------|    \
|-0--0----3-4-5---0----3-4-5-------------------|     \
                                                   GUITAR 2
|----------------------------------------------|     /
|----------------------------------------------|    /
|-------------------LET RING-------------------|   /
|-2--2------------2----------------------------|  /
|-2--2------------2----------------------------| /
|-0--0----3-4-5---0----------------------------|/
Chorus
|----------------------------------------------|
|----------------------------------------------|
|----------------------------------------------|
|-55555---999999---44444---5555555--5----------|
|-55555---999999---44444---5555555--5----------|
|-33333---777777---22222---3333333--0----------| 
ENDING
|----------------------------------------------|
|----------------------------------------------|
|---LET RING-----------------------------------|
|-2-------------2------------------------------|
|-2-------------2------------------------------|
|-0-------------0------------------------------| 

Intro
verse
Intro to chorus
Chorus
Intro
verse
Intro to Chorus
Chorus
Solo (behind solo intro into chorus + chorus)
Intro x 8
Ending







Important: The song above is NOT stored on the Chordie server. The original song is hosted at www.guitaretab.com. Chordie works as a search engine and provides on-the-fly formatting. Chordie does not index songs against artists'/composers' will. To remove this song please click here.

This song is displayed as text-only. Transposing and tuning is only available for chordpro-songs.

Login - add to songbook

Rating click stars to rate

Layout
Accuracy

SHARE PAGE  




You need to log in to post comments