Guitar Tabs, Chords and Lyrics


Lance Vance   Misc. Unsigned Bands



Jesus and the Cave Monkeys
Lance Vance
Standard Tuning

Verse
e|----------------------------------|
B|----------------------------------|
G|----------------------------------|
D|----------------------------------|
A|------1---3---1-3---1-------------|
E|-3-3-3-3-3-3-3---3-3--3-1-3--3-1-3|

Chorus
e|-------------------------------------------------------------------------|
B|-------------------------------------------------------------------------|
G|------------3-3-3-------------5-5-5-------------3-3-3-------------5-5----|
D|5-5-5-3-3-3-3-3-3-5-5-5-3-3-3-5-5-5-5-5-5-3-3-3-3-3-3-5-5-5-3-3-3-5-5-5-5|
A|5-5-5-3-3-3-1-1-1-5-5-5-3-3-3-3-3-3-5-5-5-3-3-3-1-1-1-5-5-5-3-3-3-3-3-5-5|
E|3-3-3-1-1-1-------3-3-3-1-1-1-------3-3-3-1-1-1-------3-3-3-1-1-1-----3-3|

Verse
e|----------------------------------|
B|----------------------------------|
G|----------------------------------|
D|----------------------------------|
A|------1---3---1-3---1-------------|
E|-3-3-3-3-3-3-3---3-3--3-1-3--3-1-3|

Chorus
e|-------------------------------------------------------------------------|
B|-------------------------------------------------------------------------|
G|------------3-3-3-------------5-5-5-------------3-3-3-------------5-5----|
D|5-5-5-3-3-3-3-3-3-5-5-5-3-3-3-5-5-5-5-5-5-3-3-3-3-3-3-5-5-5-3-3-3-5-5-5-5|
A|5-5-5-3-3-3-1-1-1-5-5-5-3-3-3-3-3-3-5-5-5-3-3-3-1-1-1-5-5-5-3-3-3-3-3-5-5|
E|3-3-3-1-1-1-------3-3-3-1-1-1-------3-3-3-1-1-1-------3-3-3-1-1-1-----3-3|


Solo
e|---------13-----15-----13-15-----13------------------|
B|-15-15-15--15-15--15-15-----15-15--15-13-15--15-13-15|
G|-----------------------------------------------------|
D|-----------------------------------------------------|
A|-----------------------------------------------------|
E|-----------------------------------------------------|

e|---------------------------------------------------------------|
B|15-13---15-13---15-13---15-13---13-11---13-11---13-11---13-11--|
G|-----14------14------14------14------12------12------12------12|
D|---------------------------------------------------------------|
A|---------------------------------------------------------------|
E|---------------------------------------------------------------|
                                                                  Repeat x2
e|---------------------------------------------------------------|
B|15-13---15-13---15-13---15-13---13-11---13-11---11-9---11-9----|
G|-----14------14------14------14------12------12-----10-----10--|
D|---------------------------------------------------------------|
A|---------------------------------------------------------------|
E|---------------------------------------------------------------|

Verse
e|----------------------------------|
B|----------------------------------|
G|----------------------------------|
D|----------------------------------|
A|------1---3---1-3---1-------------|
E|-3-3-3-3-3-3-3---3-3--3-1-3--3-1-3|

End on
e|----------------------------------|
B|----------------------------------|
G|----------------------------------|
D|-5--------------------------------|
A|-5--------------------------------|
E|-3--------------------------------|


Important: The song above is NOT stored on the Chordie server. The original song is hosted at www.guitaretab.com. Chordie works as a search engine and provides on-the-fly formatting. Chordie does not index songs against artists'/composers' will. To remove this song please click here.

This song is displayed as text-only. Transposing and tuning is only available for chordpro-songs.

Login - add to songbook

Rating click stars to rate

Layout
Accuracy

SHARE PAGE  




You need to log in to post comments