Guitar Tabs, Chords and Lyrics


Lesson In Perspective   Misc. Unsigned Bands



Lesson in Perspective: Emphasis
Tabbed by: Erik
comments/questions: email me at ewlord-1492@hotmail.com

this is a new band that hasn't put out their first cd yet but they're still pretty good.
go check them out at www.myspace.com/emphasishappymusicforhappypeople
they're alot like blink 182 so if you're a fan, go have a look.

Intro (0:00):
E--------------|
B--------------|
G--------------|	(4x)
D--2-----------|
A-----2--4--0--|
E--------------|

E-----------------------------------|
B-----------------------------------|
G----9---7---6---7---9---7---6---7--|
D--77--77--77--77--77--77--77--77---|
A-----------------------------------|
E-----------------------------------|

E-----------------------------------|
B-----------------------------------|
G----9---7---6---7---6---6---4---4--|
D--77--77--77--77--77--77--77--77---|
A-----------------------------------|
E-----------------------------------|

E-----------------------------------|
B-----------------------------------|
G----9---7---6---7---9---7---6---7--|
D--77--77--77--77--77--77--77--77---|
A-----------------------------------|
E-----------------------------------|

E------------------------------------|
B------------------------------------|
G----9---7---6---7---6---6-44444444--|
D--77--77--77--77--77--77------------|
A------------------------------------|
E------------------------------------|

Verse (0:31):
E----(Play 4x)----          (After last time) E---------|
B-----------------                B--5555---------------|
G-----------------                G---------------------|
D--2------4----7--                D---------------------|
A--2------4----7--                A---------------------|
E--0------2----5--                E---------------------|

Chorus (0:52):
E-------(Play 3x)-------	E---------(last time)-------------|
B-----------------------	B---------------------------------|
G--4444-----------------	G--44-444-4-----------------------|
D--2222-4444-6666-------	D--22-222-244-444-4-6666-------2--|
A-------2222-4444-7777--	A----------22-222-2-4444-7777--2--|
E-----------------5555--	E------------------------5555--0--|

E------------|
B------------|
G------------|
D------------|
A------------|
E--00-00-00--|

Second Verse (1:14):
E-----------(Play 2x)----------------|
B------------------------------------|
G------------------------------------|
D------------------------------------|
A------------------------------------|
E--00000000000000002222222255555555--|

E-----------(Play 2x)----------------|
B------------------------------------|
G------------------------------------|
D----2---2---2---2---4---4---7---7---|
A----2---2---2---2---4---4---7---7---|
E--000-000-000-000-222-222-555-555---|

Chorus (1:33):
E-------(Play 3x)-------	E---------(last time)-------------|
B-----------------------	B---------------------------------|
G--4444-----------------	G--44-444-4-----------------------|
D--2222-4444-6666-------	D--22-222-244-444-4-6666-------2--|
A-------2222-4444-7777--	A----------22-222-2-4444-7777--2--|
E-----------------5555--	E------------------------5555--0--|

E------------|
B------------|
G------------|
D------------|
A------------|
E--00-00-00--|

Bridge (1:56)
E------------(Play 3x)---------------|
B------------------------------------|
G------------------------------------|
D------------------------------------|
A--22-22-22-22-4/7--22-22-22-22-9-9--|
E--00-00-00-00-2/5--00-00-00-00-7-7--|

E------------(Last time)-------------|
B------------------------------------|
G------------------------------------|
D------------------------------------|
A--22-22-22-22-4/7--22-22-22-22------|
E--00-00-00-00-2/5--00-00-00-00------|

After Bridge (2:15)
E------------------------------------------------------------------|
B------------------------------------------------------------------|
G--444444--------------------------444444--------------------------|
D--222222----------666666----------222222----------666666--444444--|
A----------777777--444444--777777----------777777--444444--222222--|
E----------555555----------555555----------555555------------------|

E----------------------------------------------|
B----------------------------------------------|
G--444444--------------------------4-----------|
D--222222----------666666----------2-----6--4--|
A----------777777--444444--777777-----7--4--2--|
E----------555555----------555555-----5--------|
Chorus (2:35):
E-------(Play 3x)-------	E---------(last time)-------------|
B-----------------------	B---------------------------------|
G--4444-----------------	G--44-444-4-----------------------|
D--2222-4444-6666-------	D--22-222-244-444-4-6666-------2--|
A-------2222-4444-7777--	A----------22-222-2-4444-7777--2--|
E-----------------5555--	E------------------------5555--0--|

E------------|
B------------|
G------------|
D------------|
A------------|
E--00-00-00--|



Important: The song above is NOT stored on the Chordie server. The original song is hosted at www.guitaretab.com. Chordie works as a search engine and provides on-the-fly formatting. Chordie does not index songs against artists'/composers' will. To remove this song please click here.

This song is displayed as text-only. Transposing and tuning is only available for chordpro-songs.

Login - add to songbook

Rating click stars to rate

Layout
Accuracy

SHARE PAGE  




You need to log in to post comments