Chordie logo

Zoakim Al Ahava Yelling At Love   Misc. Unsigned Bands



Ok.. This is My First Song :D
Note : This song is In Hebrew.
Full Song by Benoit Nehaisi & Roei Geffen.

Chords :
   Am E  Dm F  C  G
|--0--0--1--1--0--3--|
|--1--0--3--1--1--0--|
|--2--1--2--2--0--0--|
|--2--2--0--3--2--0--|
|--0--2--X--3--3--2--|
|--X--0--X--1--X--3--|




|-----6---7---6---7--|
|-4-4---4---4---4----|
|--------------------|
|--------------------|
|--------------------|
|--------------------|

|---6---7---6---7----|
|-4---4---4---4------|
|--------------------|
|--------------------|
|--------------------|
|--------------------|

|-0-7-0-6-0-7-6-0-7--|
|--------------------|
|--------------------|
|--------------------|
|--------------------|
|--------------------|

|| Dm X4 | E X4 || 


Intro :
|| Am (Up-Down) | E (Up-Down) | F (Up-Down) || Dm (Faster) | E (Faster) ||  x2


Verse 1 Chords :
|| Am | E | F | C | E ||  x2
|| F | G | C | E || C | E ||


Main Part :
|| Am | F | C | G ||  x2

Verse 2 Chords :
|| Am | E | F | C | E ||  x2
|| F | G | C | E || C | E ||

Main Part(Again >

Important: The song above is NOT stored on the Chordie server. The original song is hosted at www.guitaretab.com. Chordie works as a search engine and provides on-the-fly formatting. Chordie does not index songs against artists/composers will. To remove this song please click here.

This song is displayed as text-only. Transposing and tuning is only available for chordpro-songs.

Login - add to songbook

Rating click stars to rate

Layout
Accuracy

SHARE PAGE  

You need to log in to post comments