Guitar Tabs, Chords and Lyrics


The Eyes Of Texas   Misc. Unsigned Bands



-------------------------------------------------------------------------------
			     THE EYES OF TEXAS - The University of Texas
-------------------------------------------------------------------------------
Tabbed by: George
Email:

Tuning:

e|----0---0---0--2--4---0----5--5--0--2--4------0---0---0--2--4--0-----------|
B|--0---0---0---------------------------------0---0---0----------------------|
G|---------------------------------------------------------------------------|
D|---------------------------------------------------------------------------|
A|---------------------------------------------------------------------------|
E|---------------------------------------------------------------------------|

e|--4--4--2--2--4--2------2--2--1-1--2--2--0----------5--5--0-0--2--3--4----|
B|--------------------------------------------0---0-------------------------|
G|---------------------------------------------------------------------------|
D|---------------------------------------------------------------------------|
A|---------------------------------------------------------------------------|
E|---------------------------------------------------------------------------|

e|----0---0---0--2--4--0-----4--4---2--2--4--0-------------------------------|
B|--0---0---0----------------------------------------------------------------|
G|---------------------------------------------------------------------------|
D|---------------------------------------------------------------------------|
A|---------------------------------------------------------------------------|


Important: The song above is NOT stored on the Chordie server. The original song is hosted at www.guitaretab.com. Chordie works as a search engine and provides on-the-fly formatting. Chordie does not index songs against artists'/composers' will. To remove this song please click here.

This song is displayed as text-only. Transposing and tuning is only available for chordpro-songs.

Login - add to songbook

Rating click stars to rate

Layout
Accuracy

SHARE PAGE  




You need to log in to post comments