Guitar Tabs, Chords and Lyrics


Life Of Mine   Misc. Unsigned Bands



Artist: Five.Bolt.Main
Song: Life of Mine
Album: Venting
Tuning: drop Bb  .=palm mute x= mute strings
Email: LiquIdfir3@msn.com

This tab is not 100%, if you find mistakes please post them in the comments and ill 
Its in the ball park though, so rock on!
Intro:
c |-----x---x---x---|
G |-----x---x---x---|
Eb|-----x---x---x---|
Bb|---5-x-5-x-5-x-5-|
F |---5-x-5-x-5-x-5-|
Bb|---5-x-5-x-5-x-5-|


intro cont...
c |---------------------------|
G |---------------------------|
Eb|---------------------------|
Bb|---6-6-5-x--5-5-4----------|
F |---6-6-5-x--5-5-4----------|
Bb|---6-6-5-x--5-5-4---- 

Important: The song above is NOT stored on the Chordie server. The original song is hosted at www.guitaretab.com. Chordie works as a search engine and provides on-the-fly formatting. Chordie does not index songs against artists'/composers' will. To remove this song please click here.

This song is displayed as text-only. Transposing and tuning is only available for chordpro-songs.

Login - add to songbook

Rating click stars to rate

Layout
Accuracy

SHARE PAGE  




You need to log in to post comments