Guitar Tabs, Chords and Lyrics


This Dream   Misc. Unsigned Bands



-------------------------------------------------------------------------------
			     This dream - S-man and levi
-------------------------------------------------------------------------------
Tabbed by:emo_kid1969
Email:levi_bourque@hotmail.com

Tuning:

e|--------------------------------------------------------------------------|
B|--------------------------------------------------------------------------|
G|--------------------------------------------------------------------------|
D|-------------------------------99999999----------55555555-----------------|
A|77777777--------33333333-------77777777 55555555-33333333-99999999--------|
E|--------33333333--------7777777-------- 33333333----------77777777--------|
  p
e|--------------------------------------------------------------------------|
B|--------------------------------------------------------------------------|
G|--------------------------------------------------------------------------|
D|--9---9-9-------------5---5-5---------------------------------------------|
A|7---7--7----5---5-5-3---3--3----9---9-9-----------------------------------|
E|----------3---3--3------------7---7--7------------------------------------|

e|--------------------------------------------------------------------------|
B|--------------------------------------------------------------------------|
G|--------------------------------------------------------------------------|
D|--9---9-9-------------5---5-5---------------------------------------------|
A|7---7--7----5---5-5-3---3--3----9---9-9-----------------------------------|


Important: The song above is NOT stored on the Chordie server. The original song is hosted at www.guitaretab.com. Chordie works as a search engine and provides on-the-fly formatting. Chordie does not index songs against artists'/composers' will. To remove this song please click here.

This song is displayed as text-only. Transposing and tuning is only available for chordpro-songs.

Login - add to songbook

Rating click stars to rate

Layout
Accuracy

SHARE PAGE  




You need to log in to post comments