Guitar Tabs, Chords and Lyrics


Like It Or Not   Misc. Unsigned Bands



Intro:

e---------------------------------------------------|
B---------------------------------------------------|
G---------------------------------------------------|
D-0-3-5-------0-3-5-------0-3-5---------------------| x'2
A-------3-3-3-------3-3-3-------3-3-3--10-5-8-------|
E---------------------------------------8-3-6-------|


End:

e-------------------------|
B-------------------------|
G-------------------------| x'2
D-------------------5---7-|
A-10-5-5-5--6666--3-3-5-5-|


Important: The song above is NOT stored on the Chordie server. The original song is hosted at www.guitaretab.com. Chordie works as a search engine and provides on-the-fly formatting. Chordie does not index songs against artists'/composers' will. To remove this song please click here.

This song is displayed as text-only. Transposing and tuning is only available for chordpro-songs.

Login - add to songbook

Rating click stars to rate

Layout
Accuracy

SHARE PAGE  




You need to log in to post comments