Guitar Tabs, Chords and Lyrics


Running Refuge   Misc. Unsigned Bands



Intro: (distortion)

e---------------------------------------------|
B---------------------------------------------|
G---------------------------------------------|
D------12-12-12-12-12-12-----7-9-5-5-5-7  x'4-|
A-7-7--10-10-10-10-10-10-7-7-5-7-3-3-3-5------|
E-5-5--10-10-10-10-10-10-5-5-5-7-3-3-3-5------|

all verses beat:(acoustic)

e----------------------------|
B----------------------------|
G-4-4-4--2-2-2---------------|
D-4-4-4--2-2-2--4-4-4--2-2-2-|
A-2-2-2--0-0-0--4-4-4--2-2-2-|
E---------------2-2-2--0-0-0-|

all chorus:

e----------------------------------|
B------------------------------7-9-|
G------------------------------7-9-|
D-7-9-7--12-12-12-12-12--7-9-7-5-7-|
A-7-9-7--12-12-12-12-12--7-9-7-----|
E-5-7-5--10-10-10-10-10--5-7-5-----|



Important: The song above is NOT stored on the Chordie server. The original song is hosted at www.guitaretab.com. Chordie works as a search engine and provides on-the-fly formatting. Chordie does not index songs against artists'/composers' will. To remove this song please click here.

This song is displayed as text-only. Transposing and tuning is only available for chordpro-songs.

Login - add to songbook

Rating click stars to rate

Layout
Accuracy

SHARE PAGE  




You need to log in to post comments