Guitar Tabs, Chords and Lyrics


Malcolms Song   Misc. Unsigned Bands



this is a new good band
Band: Checkered Stripes
Song: Malcolms Song
Album:Ckeckered Stripes
Guitarist: Malcolm Duncan and Harrison King

intro
e-----------------------|
b-----------------------|
g-----------------------|
d-9-9-9-7-7-7-5-5-5-4-4-|    x4
a-9-9-9-7-7-7-5-5-5-4-4-|
e-7-7-7-5-5-5-3-3-3-2-2-|

verse
e-----------------------------------|
b-----------------------------------|
g-----------------------------------|
d-9-9-9-7-7-7-7-5-5-4-4-4-4---------|       x4
a-9-9-9-7-7-7-7-5-5-4-4-4-4---------|
e-7-7-7-5-5-5-5-3-3-2-2-2-2---------|

chours
e------------------------------|
b------------------------------|
d------------------------------|
g-9-9-7-7-7-5-5-5-5-5-5-5-5----|
a-9-9-7-7-7-5-5-5-5-5-5-5-5----|   x4
e-7-7-5-5-5-3-3-3-3-3-3-3-3----|


solo
e-7-7-5-5-5-3-3-3-3-3-3-3-3-|
b-7-7-5-5-5-3-3-3-3-3-3-3-3-|
g---------------------------|    x4
d---------------------------|
a---------------------------|
e---------------------------|


order:
intro
verse
chorus
solo


Important: The song above is NOT stored on the Chordie server. The original song is hosted at www.guitaretab.com. Chordie works as a search engine and provides on-the-fly formatting. Chordie does not index songs against artists'/composers' will. To remove this song please click here.

This song is displayed as text-only. Transposing and tuning is only available for chordpro-songs.

Login - add to songbook

Rating click stars to rate

Layout
Accuracy

SHARE PAGE  




You need to log in to post comments