Guitar Tabs, Chords and Lyrics


Shell Shocked Returns   Misc. Unsigned Bands


-------------------------------------------------------------------------------











-------------------------------------------------------------------------------



e|------------------|



B|------------------|



G|-10-----10--------|



D|-8--x16-0--x16----| x2



A|-8------0---------|



D|-8------0---------|



e|------------------|



B|------------------|



G|-7-----7----------|



D|-7-x16-7-x16------| x4



A|-5-----0----------|



D|-5-----0----------|



e|------------------|



B|------------------|



G|------------------|



D|------------------|



A|------------------|



D|------------------|



e|------------------|



B|------------------|



G|-7-----7-----5----|



D|-7-x16-7-x16-5-x8-| x4



A|-5-----0-----3----|



D|-5-----0-----3----|



e|-----------------------|



B|-----------------------|



G|-----------------------|



D|-----------------------|



A|-7-x8--9-x8-11-x8-9-x8-|



D|-9-----7----9-----7----|



e|----------------------------------|



B|----------------------------------|



G|-10-----10-----10-----12----10----|



D|-8--x16-0--x16-8--x16-10-x4-8--x4-|



A|-8------0------8------10----8-----|



D|-8------0------8------10----8-----|



e|----------------------------|



B|----------------------------|



G|-10-----10------12----10----|



D|-8--x16-0--x16--10-x4-8--x4-|



A|-8------0-------10----8-----|



D|-8------0-------10----8-----|





Father please Take him away....


Phase III


pm . . . .       . . . .    . . . .      . . . .


                                                                                     


e|-------------------------|-----------------------|
B|---------5---------------|---------------------5-|
G|---------5-------------5-|--------5------------5-|
D|---------3--x3---------5-|--------5-x3---------3-|x 2
A|-3-3-3-3-3-----3-3-3-3-3-|--------5------------3-|
D|-----------------------3-|0-0-0-0-3----0-0-0-0---|








My dear uncle...


Phase IV


                                                                                     


e|-------------------|
B|-------------------|
G|-7-----5-----9-----|
D|-5-x24-3-x24-7-x24-| x2
A|-5-----3-----7-----|
D|-5-----3-----7-----|








My dear andy mitchell...


Bridge


                                                                                     


e|-----------------------|
B|-----------------------|
G|-----------------------|
D|-----------------------|
A|-7-x8--9-x8-11-x8-9-x8-|
D|-9-----7----9-----7----|








Another letter written in...


Chorus I


                                                                                    


e|----------------------------------|
B|----------------------------------|
G|-10-----10-----10-----12----10----|
D|-8--x16-0--x16-8--x16-10-x4-8--x4-|
A|-8------0------8------10----8-----|
D|-8------0------8------10----8-----|








Am i insane in the fact that....


Chorus II


                                                                                    


e|----------------------------|
B|----------------------------|
G|-10-----10------12----10----|
D|-8--x16-0--x16--10-x4-8--x4-|
A|-8------0-------10----8-----|
D|-8------0-------10----8-----|








Shell shocked returns...


Break


                                                                                    


e|----------------------------|
B|----------------------------|
G|-10-----10------12----10----|
D|-8--x16-0--x16--10-x4-8--x4-| x4
A|-8------0-------10----8-----|
D|-8------0-------10----8-----|



Important: The song above is NOT stored on the Chordie server. The original song is hosted at www.guitaretab.com. Chordie works as a search engine and provides on-the-fly formatting. Chordie does not index songs against artists'/composers' will. To remove this song please click here.

This song is displayed as text-only. Transposing and tuning is only available for chordpro-songs.

Login - add to songbook

Rating click stars to rate

Layout
Accuracy

SHARE PAGE  




You need to log in to post comments