Guitar Tabs, Chords and Lyrics


Undertaker   Misc. Unsigned Bands



      This is one of my songs i made and i dont know how the hell i did it but it has
of palm mutes and its extremely fast i suggest you learn it slow first and then play it fast.

 * palm mute
 ^ bend/stretch
 ~ vibrato

                  order
                 riff 1
                 riff 2
                 riff 1
                 riff 3
                 repeat
                 chorus 1
                 chorus 2
                 repeat
                 back to riff 1
                 i cant tab my solo its really long and i dont have the patience sorry

         (riff 1)
e--------------------------------------------------|
b--------------------------------------------------|
g--------------------------------------------------|
d--------------------5-----------------------------|
a--0*0*-5-0*-8*7*-0*--0*0*-8-0*-7-0*-5^~~~~~-------|
D--0*0*---0*------0*--0*0*---0*---0*---------------|

          (riff 2)
e--------------------------------------------------|
b--------------------------------------------------|
g--------------------------------------------------|
d--------------------5---------------5^~~~~~~~-----|
a--0*0*-5-0*-8*7*-0*--0*0*-8-0*-7-0*---------------|
D--0*0*---0*------0*--0*0*---0*---0*---------------|

          (riff 1)
e--------------------------------------------------|
b--------------------------------------------------|
g--------------------------------------------------|
d--------------------5-----------------------------|
a--0*0*-5-0*-8*7*-0*--0*0*-8-0*-7-0*-5^~~~~~-------|
D--0*0*---0*------0*--0*0*---0*---0*---------------|

                (riff 4)
e--------------------------------------------------|
b--------------------------------------------------|
g------------------------------------7^~~~---------|
d--------------------5--0*-7-0*-9-0*---------------|
a--0*0*-5-0*-8*7*-0*--0*0*---0*---0*---------------|
D--0*0*---0*------0*--0*---------------------------|

            chorus riff 1
e-------------------------------------------|
b-------------------------------------------|
g-------------------------------------------|
d-------------------------------------------|
a--0*0*-7-0*-10-9-0*-7-0*0*-5-0*-8-0*-7-----|
D--0*0*---0*------0*---0*0*---0*---0*-------|

          chorus riff 2
e--------------------------------------|
b--------------------------------------|
g--------------------------------------|
d--------------------------------------|
a--0*0*-3-0*-6-5-0*-3-0*0*-1-0*-4-0*-3-|


Important: The song above is NOT stored on the Chordie server. The original song is hosted at www.guitaretab.com. Chordie works as a search engine and provides on-the-fly formatting. Chordie does not index songs against artists'/composers' will. To remove this song please click here.

This song is displayed as text-only. Transposing and tuning is only available for chordpro-songs.

Login - add to songbook

Rating click stars to rate

Layout
Accuracy

SHARE PAGE  




You need to log in to post comments