Guitar Tabs, Chords and Lyrics


Cry Me A River Of Lava   Misc. Unsigned Bands



E|---------------------------------------------------------------------|
B|---------------------------------------------------------------------|
G|---------------------------------------------------------------------|
D|---------------------------------------------------------------------|
A|7-7-7-7-5-5-5-5-3-3-3-3-5-5-5-5--------------------------------------| 
E|5-5-5-5-3-3-3-3-1-1-1-1-3-3-3-3--------------------------------------|X3

       Into The solo 
 |---------------------------------------------------------------------|
 |---------------------------------------------------------------------|
 |---------------------------------------------------------------------|
 |---------------------------------------------------------------------|
 |7-7-7-7-5-5-5-5-3-5--------------------------------------------------|
 |5-5-5-5-3-3-3-3-1-3-13121110987654321111-----------------------------|

                    Outro
 |---------------------------------------------------------------------|
 |---------------------------------------------------------------------|
 |---------------------------------------------------------------------|
 |---------------------------------------------------------------------|
 |7-7-5-5-3-3-5-5-7-7-5-5-3-3-5-5-7-7-5-5-3-3-5-5-7--------------------|


Important: The song above is NOT stored on the Chordie server. The original song is hosted at www.guitaretab.com. Chordie works as a search engine and provides on-the-fly formatting. Chordie does not index songs against artists'/composers' will. To remove this song please click here.

This song is displayed as text-only. Transposing and tuning is only available for chordpro-songs.

Login - add to songbook

Rating click stars to rate

Layout
Accuracy

SHARE PAGE  




You need to log in to post comments