Guitar Tabs, Chords and Lyrics


Unforgivable   Misc. Unsigned Bands



intro
---------------------------------|
---------------------------------|
---------------------------------|
--3-3-3-3--5-5-5-5---------------|
--3-3-3-3--5-5-5-5---------------|
--1-1-1-1--3-3-3-3---------------|

----------------------------------------------------------------------|
----------------------------------------------------------------------|
--5-x-x-5-x-x-5-x-----------------------------------------------------| x2
--5-x-x-5-x-x-5-x--5-x-x-5-x-x-5-x--7-x-x-7-x-x-7-x--3-3-3-3--5-5-5-5-|
--3-x-x-3-x-x-3-x--5-x-x-5-x-x-5-x--7-x-x-7-x-x-7-x--3-3-3-3--5-5-5-5-|


Important: The song above is NOT stored on the Chordie server. The original song is hosted at www.guitaretab.com. Chordie works as a search engine and provides on-the-fly formatting. Chordie does not index songs against artists'/composers' will. To remove this song please click here.

This song is displayed as text-only. Transposing and tuning is only available for chordpro-songs.

Login - add to songbook

Rating click stars to rate

Layout
Accuracy

SHARE PAGE  




You need to log in to post comments