Guitar Tabs, Chords and Lyrics


But Why   Misc. Unsigned Bands



This is Blinded Youth's First tab!


Tabbed by:
Email:

Tuning:

e|--------------------------------------------------------------------------------|
B|--------------------------------------------------------------------------------|
G|--------------------------------------------------------------------------------|3x
D|-----------------6--------------------------------------------------------------|
A|----7-----7--7------------------------------------------------------------------|
E|-8-----8------------------------------------------------------------------------|


then go to

Tabbed by:
Email:

Tuning:

e|-------------------------------------------------------------------------------|
B|-------------------------------------------------------------------------------|
G|-------------------------------------------------------------------------------|
D|----------6--------------------------------------------------------------------|
A|-7-----7-----------------------------------------------------------------------|


Important: The song above is NOT stored on the Chordie server. The original song is hosted at www.guitaretab.com. Chordie works as a search engine and provides on-the-fly formatting. Chordie does not index songs against artists'/composers' will. To remove this song please click here.

This song is displayed as text-only. Transposing and tuning is only available for chordpro-songs.

Login - add to songbook

Rating click stars to rate

Layout
Accuracy

SHARE PAGE  




You need to log in to post comments