Guitar Tabs, Chords and Lyrics


Swing Sets And Cigarettes   Misc. Unsigned Bands



SONG: SWING SETS AND CIGARETTES
ARTIST: FIFTY CALIBER ETHICS
YEAR: (c) 2006 BY FIFTY CALIBER ETHICS
BY: MATT WILLIS

LEGEND:
. = Palm Mute
/ = Slide Up
\ = Slide Down
~ = Let Ring
h = Hammer On
p = Pull Off

INTRO:

eb|-----------------|-----------------|-----------------|-----------------|
Bb|-----------------|-----------------|-----------------|-----------------|
Gb|-7/9-9-9-9-9-9-9-|-9\7-7-7-7-7-7-7-|-----------------|-----------------|
Db|-7/9-9-9-9-9-9-9-|-9\7-7-7-7-7-7-7-|-7/9-9-9-9-9-9-9-|-0h2-2-2-2-2-2-2-|x2
Ab|-5/7-7-7-7-7-7-7-|-7\5-5-5-5-5-5-5-|-7/9-9-9-9-9-9-9-|-0h2-2-2-2-2-2-2-|
Eb|-----------------|-----------------|-5/7-7-7-7-7-7-7-|-0-0-0-0-0-0-0-0-|

VERSE:

  "It's nothing.."
eb|-----------------|---------------|---------------|-----------------|
Bb|-----------------|---------------|---------------|-----------------|
Gb|-----------------|---------------|---------------|-----------------|
Db|-0h2-2-2-2-2-2-2-|-5-5-5-5-5-5-5-|-7-7-7-7-7-7-7-|-0h2-2-2-2-2-2-0-|x2
Ab|-0h2-2-2-2-2-2-2-|-5-5-5-5-5-5-5-|-7-7-7-7-7-7-7-|-0h2-2-2-2-2-2-0-|
Eb|-0-0-0-0-0-0-0-0-|-3-3-3-3-3-3-3-|-5-5-5-5-5-5-5-|-0-0-0-0-0-0-0-0-|

CHORUS:

   "So c'mon.."        "I'll st.."                                 "Yeah!"
eb|---------|---------|---------|-----------|---------|---------|---------|
Bb|---------|---------|---------|-----------|---------|---------|---------|
Gb|-2-2-2-2-|-5-5-5-5-|---------|-2-2-2-2-2-|-2-2-2-2-|-5-5-5-5-|-9~------|
Db|-2-2-2-2-|-5-3-3-3-|-5-5-5-5-|-3-3-3-3-3-|-2-2-2-2-|-5-5-5-5-|-9~------|
Ab|-0-0-0-0-|-3-3-3-3-|-5-5-5-5-|-3-3-3-3-3-|-0-0-0-0-|-3-3-3-3-|-7~------|
Eb|---------|---------|-3-3-3-3-|-1-1-1-1-1-|---------|---------|----12\--|
                                                                  .

VERSE:

  "seesaws and.."
eb|-----------------|---------------|---------------|-----------------|
Bb|-----------------|---------------|---------------|-----------------|
Gb|-----------------|---------------|---------------|-----------------|
Db|-0h2-2-2-2-2-2-2-|-5-5-5-5-5-5-5-|-7-7-7-7-7-7-7-|-0h2-2-2-2-2-2-0-|
Ab|-0h2-2-2-2-2-2-2-|-5-5-5-5-5-5-5-|-7-7-7-7-7-7-7-|-0h2-2-2-2-2-2-0-|
Eb|-0-0-0-0-0-0-0-0-|-3-3-3-3-3-3-3-|-5-5-5-5-5-5-5-|-0-0-0-0-0-0-0-0-|

CHORUS:

   "So c'mon.."        "I'll st.."
eb|---------|---------|---------|-----------|---------|---------|---------|
Bb|---------|---------|---------|-----------|---------|---------|---------|
Gb|-2-2-2-2-|-5-5-5-5-|---------|-2-2-2-2-2-|-2-2-2-2-|-5-5-5-5-|-9~------|
Db|-2-2-2-2-|-5-3-3-3-|-5-5-5-5-|-3-3-3-3-3-|-2-2-2-2-|-5-5-5-5-|-9~------|
Ab|-0-0-0-0-|-3-3-3-3-|-5-5-5-5-|-3-3-3-3-3-|-0-0-0-0-|-3-3-3-3-|-7~------|
Eb|---------|---------|-3-3-3-3-|-1-1-1-1-1-|---------|---------|----12\--|
                                                                  .

CHORUS:

   "So c'mon.."            "I'll st.."
eb|-----------|-----------|-----------|----------|-----------|-----------|---------||----|
Bb|-----------|-----------|-----------|----------|-----------|-----------|---------||----|
Gb|-2-2-2-2-2-|-5-5-5-5-5-|-----------|----------|-----------|-5-5-5-7-9-|-9-9-9-9-||-2~-|
Db|-2-2-2-2-2-|-5-5-5-5-5-|-5-5-5-5-5-|-9-9-9-10-|-7-7-7-7-7-|-5-5-5-7-9-|-9-9-9-9-||-2~-|
Ab|-0-0-0-0-0-|-3-3-3-3-3-|-5-5-5-5-5-|-9-9-9-10-|-7-7-7-7-7-|-3-3-3-5-7-|-7-7-7-7-||-0~-|


Important: The song above is NOT stored on the Chordie server. The original song is hosted at www.guitaretab.com. Chordie works as a search engine and provides on-the-fly formatting. Chordie does not index songs against artists'/composers' will. To remove this song please click here.

This song is displayed as text-only. Transposing and tuning is only available for chordpro-songs.

Login - add to songbook

Rating click stars to rate

Layout
Accuracy

SHARE PAGE  




You need to log in to post comments