Guitar Tabs, Chords and Lyrics


In Your Hands   Misc. Unsigned Bands



Genrev
in your hands
tab
by:jomer ba nomher
 madali lang to

d-b#m-g-a (2x)

ito gagawin ng lead pag simula na ung kanta!!....

verse 1:   
e----------------------------------------|
B----------------------------------------|
G--14-13-11-------------11-14--13--16-14-|   2 beses po to
D------------14-12-11--------------------|   tapos pasok kaagad yung sunod
A----------------------------------------|
E----------------------------------------|

e-------------|
B-------------|
G-14-14-13-14-|
D-------------|
A-------------|
E-------------|


chorus: 
dito tuloy-tuloy na wala nang hintu to!!
                                                                
e----------------|----------------------|-----------|      
B-14-------------|----------12-14--12---|-----------|
G----14-14-13-14-|-14-13-14------14--14-|--14-13-14-|
D----------------|----------------------|-----------|
A----------------|----------------------|-----------|
E----------------|----------------------|-----------|

e------------------|
B---------12-------|
G-14-13-14---13-14-|
D------------------|
A------------------|
E------------------|

2 beses ung sa chorus

tapos po ulitin nalang ung parang sa (verse 1) parehas lang po un sa 
(verse 2)

tapos (chorus)ulit..         2 beses rin pu yun

tapos pasok ung verse 3

verse 3:


e----------|-----------|-------------|---------|
B----------|-12----12--|-14-14-14-14-|-12-12---|
G-11-13-14-|--14-11-14-|-------------|---14-14-|
D----------|-----------|-------------|---------|
A----------|-----------|-------------|---------|
E----------|-----------|-------------|---------|


e----------|------------|-------|-----------|
B----------|-12---------|-12-12-|--12-14-12-|
G-11-13-14-|---14-11-14-|-------|-14--------|
D----------|------------|-------|-----------|
A----------|------------|-------|-----------|
E----------|------------|-------|-----------|

chorus po ulit ewan ko lang kung 3 o 2 beses
pakatapos ng chorus ulitin nalang to para sa patapos ung sa
(you'll never let me go)ewan ko kung ilang bese pero yan yon
e------------------|
B---------12-------|
G-14-13-14---13-14-|
D------------------|
A------------------|
E------------------|


ok tapos na

am sa lahat ng mga taga shs
hi!!....hehehe
hi!!nga pala kay saling pusa (lam mo na kung cno ka) ingat ka palage
hehehe sa... lahat kaya nyo 2 madali lang to

add nyo ko sa friendster  Nomher_23@yahoo.com
pati sa YM  nomher_23





Important: The song above is NOT stored on the Chordie server. The original song is hosted at www.guitaretab.com. Chordie works as a search engine and provides on-the-fly formatting. Chordie does not index songs against artists'/composers' will. To remove this song please click here.

This song is displayed as text-only. Transposing and tuning is only available for chordpro-songs.

Login - add to songbook

Rating click stars to rate

Layout
Accuracy

SHARE PAGE  




You need to log in to post comments