Guitar Tabs, Chords and Lyrics


Soul Corrupt   Misc. Unsigned Bands



|-------------------------------------------------------------------|
|		      Blinded Mind - Soul Corrupt                   |
|-------------------------------------------------------------------|
You can tell by the tuning which guitar is which.
Tabbed by:Mike242787
Email:Mike242787&yahoo.com

Tuning:Guitar 1[D,A,D,G,B,E] Guitar 2[E,A,D,G,B,E]

Guitar 1 [heavy distortion]
Intro/Solo:
e|-----------------------------------------|
B|-----------------------------------------|
G|-----------------------------------------|
D|-3-------------8-------------------------|
A|---4-2---5-/7b---9-7---10-/12b-----------|
D|-------4-------------9-------------------|

e|-----------------------------------------|
B|-----------------------------------------|
G|-9-\3h4p3-\1-/5-/7-8---------------------|
D|--------------------8-6b-4h5p4-\1-2------|
A|-----------------------------------------|
D|-----------------------------------------|

Guitar 2 Regular tuning [Acoustic]
e|-0000-0000-0000-222-3333-----------------|
B|-0000-1111-1111-333-3333-1111------------|
G|-0000-2222-0000-222-3333-2222---1-0-1~~--|
D|-2222-2222-2222-000-3333-3333--2----2~~--|
A|-2222-0000-3333-000-0000-3333-2-----2~~--|
E|-----------------------------------------|

verse:
Both guitars [slightly distorted]single notes
|-----------------------------------------------|
|----1-0-1------------1-0-1---1----------1~~----|
|---2-----2--1-0-1---0-----0--0---1-0-1--0~~----|
|--3--------2----2--2---------2--2----2--2~~----|
|-3--------2-----2-3----------3-2-----2--3~~----|
|-----------------------------------------------|

Chorus guitar 1 [heavy distortion]
e|----------------------------------------------|
B|----------------------------------------------|
G|----------4h5p4-------------------------------|
D|-77777777-------99999999-8-8-8-8-8-8-8-8------|
A|-55555555-------77777777-1010101010101010-----|
D|----------------------------------------------|

e|--------------------|
B|--------------------|
G|--------------------|
D|-7777------6666-----|
A|-9999-5555-8888-4444|
D|------5555------4444|

Guitar 2 [heavy distortion]
e|---------------------------------|
B|---------------------------------|
G|---------------------------------|
D|----------5h6p5-55555555-55555555|
A|-44444444-------33333333-77777777|
E|-22222222------------------------|


e|--------------------|
B|--------------------|
G|--------------------|
D|-5555------4444-----|
A|-7777-3333-6666-1111|
E|------3333------1111|
Then play verse again and then 2 solo
Second solo guitar 1:
e|-----------------------------------------------------------|
B|-12------------15-----------------------/13-----------12----|
G|---13p11--14-15--16p14---------------5h7---14p12--------14--|
D|--------13------------16-\8---5h7p5-6-----------14--13------|
A|----------------------------7---------------------14--------|
D|-----------------------------------------------------------|

[alternative picking]
e|---13--------14-------|
B|-13--15--13-----------|
G|-------14--15----13b--|
D|---------------16-----|
A|----------------------|
D|----------------------|


Guitar 2 [heavy distortion]
e|----------------------------|
B|----------------------------|
G|----------------------------|
D|-----------55555555-55555555|
A|-44444444--33333333-77777777|
E|-22222222-------------------|


e|--------------------|
B|--------------------|
G|--------------------|
D|-5555------4444-----|
A|-7777-3333-6666-1111|
E|------3333------1111|

Ending:BOTH GUITARS
|------------------|
|------------------|
|-3----------------|
|--4-2--5-/7b------|
|-----4------------|
|------------------|



Important: The song above is NOT stored on the Chordie server. The original song is hosted at www.guitaretab.com. Chordie works as a search engine and provides on-the-fly formatting. Chordie does not index songs against artists'/composers' will. To remove this song please click here.

This song is displayed as text-only. Transposing and tuning is only available for chordpro-songs.

Login - add to songbook

Rating click stars to rate

Layout
Accuracy

SHARE PAGE  




You need to log in to post comments