Guitar Tabs, Chords and Lyrics


Suddenly  Misc. Unsigned Bands

e|--------------------------------------------------------------|


B|----8-----8-----7-----7-----8-----8-----10-----10-------------|


G|------0-----0-----0-----0-----0-----0------0------0-----------|

D|--0-----0-----0-----0-----0-----0-----0------0------0---------|
A|--------------------------------------------------------------|
E|--------------------------------------------------------------| x2
e|--------------------------------------------------------------|
B|----12-----12-----10-----10-----8-----8------8------8---------|
G|-------0------0------0--------0-----0-----0------0------0-----|
D|---------0------0------0--------0-----0-----0------0------0---|
A|--------------------------------------------------------------|
E|--------------------------------------------------------------|
                 [G]      [Em]         [C]    [D] 
Verse 1
     [G]You came up [Em]in my dreams again [C]last night    [D]
     [G]You looked s[Em]o fukin hot you loo[C]ked so tight  [D]
     [G]I undressed [Em]you with my e[C]yes       [D]
     [G]and i hoped to[Em] god that you b[C]ought my lies   [D]

Chorus
       And su[Em]ddenl[C]y im fin[G]ding it hard to sp[D]eak
       And su[Em]ddenl[C]y your m[G]aking it hard to b[D]reathe


Repeat Same for the 2nd verse and chorus

Interlude (softly pick chords)

              [G]            [Em]          [C] [D] 
Chorus X2

www.article48.piczo.com
www.myspace.com/xarticle48
article48

Important: The song above is NOT stored on the Chordie server. The original song is hosted at www.guitaretab.com. Chordie works as a search engine and provides on-the-fly formatting. Chordie does not index songs against artists'/composers' will. To remove this song please click here.

Text color:
Chord color:
Chord grids: 
Font size:    
Page size: 

C D Em G
variations - click chord images

Login - add to songbook

Transpose chords

Tuning

Rating click stars to rate

Layout
Accuracy

SHARE PAGE  




You need to log in to post comments