Guitar Tabs, Chords and Lyrics


Woody  Misc. Unsigned Bands

3------------------------------------|


---2---------------3-----------------|


---------------------2---------------| x2

-----------0---0--------------0---0--|
-------3------3----------3-------3---|
----3----3---3--------3----3----3----|
we[G] ache for va[Cadd9]lidity.  le[G]ts break our s[Cadd9]ecurity.
br[C]eak all our def[Am]enses.  qu[Em]ick come to our se[G]nses.
hu[G]rry before we [Cadd9]deem.   a[G]nd lose all self[Cadd9]-esteem.
no[C]w hearts we kno ra[Am]cing.  k[Em]now what we are fa[G]cing.
(pre-chorus)
3----------------------------|
-------------------3---------|
-----------------------------| x2
------------0----------------|
-------3-----3----------3----|
----3----3----3------3-------|

*play 4 more times but with the lyrics

quite lets dont be vain. please end this growing pain.


(Chorus)

sc[G]rutinize this burning[Cadd9] fire.   lo[G]ok, my eyes know i a[Cadd9]m dire.

in[C]to the furture look what ca[Am]n be.  at[Em]tempt to look, describe and[G] see.
3---------------------------------|
---2---------------3--------------|
---------------------2------------| x2
-----------0---0--------------0---|
-------3------3-----------3-------|
----3----3---3---------3----3-----|



yo[G]u are tremendously o[Cadd9]bscure.  b[G]ut thats fine cuz ill [Cadd9]endure.
we[C] can be together for long [Am]time.  lon[Em]ger then this gay like r[G]yhme.
yo[C]u know that i do love[Am] you.  i h[Em]ope that you can love me[G] too.
(pre-chorus)
3----------------------------|
-------------------3---------|
-----------------------------| x2
------------0----------------|
-------3-----3----------3----|
----3----3----3------3-------|

*play 4 more times but with the lyrics

quite lets dont be vain. please end this growing pain.


(Chorus)

sc[G]rutinize this burning[Cadd9] fire.   lo[G]ok, my eyes know i a[Cadd9]m dire.

in[C]to the furture look what ca[Am]n be.  at[Em]tempt to look, describe and[G] see.
3---------------------------------|
---2---------------3--------------|
---------------------2------------| x2
-----------0---0--------------0---|
-------3------3-----------3-------|
----3----3---3---------3----3-----|
3----------------------------|
-------------------3---------|
-----------------------------| x2
------------0-----------0----|
-------3-----3---------------|
----3---------3------3-------|


(Ending)
[G]            [Cadd9]            [G]        [Cadd9]       x2

[C]              [Am]           [Em]          [G] 

[G]            [Cadd9]        [G]                
have fun


Kendall Woodhouse
Fsflip_keino@hotmail.com

Important: The song above is NOT stored on the Chordie server. The original song is hosted at www.guitaretab.com. Chordie works as a search engine and provides on-the-fly formatting. Chordie does not index songs against artists'/composers' will. To remove this song please click here.

Text color:
Chord color:
Chord grids: 
Font size:    
Page size: 

Am C Cadd9 Em G
variations - click chord images

Login - add to songbook

Transpose chords

Tuning

Rating click stars to rate

Layout
Accuracy

SHARE PAGE  




You need to log in to post comments