Guitar Tabs, Chords and Lyrics


Childrens Funeral   Misc. Unsigned Bands



Intro
|--------------------------------|------------------|
|------0-------------0-----------|------0-----------|
|--0-----0-------0-----0---------|--0-----0---------|
|----7-------------5-------------|----5-------------|
|--9-------(x4)--7--------(x4)---|--3--------(x2)---|
|--------------------------------|------------------|

|----------------------------|
|--------0-----------0-------|
|--0---0---0---0---0---0-----|
|----4-------1---5-----------|
|--2-----------3-------------|
|----------------------------|

Intro2
|------------------------------------------------------------|---
|------------------------------------------------------------|  |
|-----0------------0--------------0--------------------------| (x2)
|---5---5--------7---7----------5---5------------------------|  |
|-7-------(x2)-5-------(x2)-5\3-------(x2)--3-2/3/5\3\2/3b---|  |
|------------------------------------------------------------|---

Verse
|------------------------------------------------------|----|
|------------------------------------------------------|    |
|-999999-111111-12-12-12--7777777--111111--12-12-12----|    |
|-xxxxxx-x-x-x--xx-xx-xx--xxxxxxx--x-x-x---xx-xx-xx----|    |
|-777777-9-9-9--10-10-10--5555555--9-9-9---10-10-10----|    |
|------------------------------------------------------|    |
                                                           (x2)
|------------------------------------------------------|    |
|------------------------------------------------------|    |
|-555555-111111-12-12-12-9999-1111--7777-1111----------|    |
|-xxxxxx-x-x-x--xx-xx-xx-xxxx-x-x---xxxx-x-x-----------|    |
|-333333-9-9-9--10-10-10-7777-9-9---5555-9-9-----------|    |
|------------------------------------------------------|----|

Bridge.
|------------------------------------------------------------|
|------------------------------------------------------------|
|-----7----5---11-12----------7----5---11-12---------7----5--|
|-----x----x----x-xx----------x----x----x-xx---------x----5--|
|-----9----7----9-10----------9----3----9-10---------9----3--|
|-000---00---00------(x2)-000---00---00------(x2)--00--00----|
Pm...   ..   ..           ...   ..   ..            ..  ..

Intro2 Again

Verse Again

And then after the verse repeat goes Same but like this and...
(all palm muted)
|------------------------------------------------------|----|
|------------------------------------------------------|    |
|-999999-111111-12-12-12--777777--111111--12-12-12-----|    |
|-999999-111111-12-12-12--777777--111111--12-12-12-----|    |
|-777777-9-9-9--10-10-10--555555--9-9-9---10-10-10-----|    |
|------------------------------------------------------|    |
                                                           (x2)
|------------------------------------------------------|    |
|------------------------------------------------------|    |
|-555555-111111-12-12-12-9999-1111--7777-1111----------|    |
|-555555-111111-12-12-12-9999-1111--7777-1111----------|    |
|-333333-9-9-9--10-10-10-7777-9-9---5555-9-9-----------|    |
|------------------------------------------------------|----|

Intro2 one more time

And Outro
|-----------------------------------------------------------------|
|----------------8------------------------------------------------|
|-------11---------9----------------9--------12------12------9----|
|-----9--------9-----9------------7--------12------12------9------|
|---7--------7------------------5--------10------9-------7-----5~-|
|-0--------0------------(x2)--0--------0--------------------------|



Important: The song above is NOT stored on the Chordie server. The original song is hosted at www.guitaretab.com. Chordie works as a search engine and provides on-the-fly formatting. Chordie does not index songs against artists'/composers' will. To remove this song please click here.

This song is displayed as text-only. Transposing and tuning is only available for chordpro-songs.

Login - add to songbook

Rating click stars to rate

Layout
Accuracy

SHARE PAGE  




You need to log in to post comments