Guitar Tabs, Chords and Lyrics


Frustration   Misc. Unsigned Bands



Ok so this is frustration.

Intro

-------------------------------------------|
-------------------------------------------|
-------------------------------------------|
-2-2-2--22-22-5-5-7--2-2-2-22-222-7-5------|
-2-2-2--22-22-5-5-7--2-2-2-22-222-7-5------|
-0-0-0--00-00b3-3-5--0-0-0-00-000-5-3------| X2
 PM*__________       ____________

Verse
-------------------------------------------|
-------------------------------------------|
-------------------------------------------|
-2-2-2--22-222-5-7--2-2-2-22-222-7-5-------|
-2-2-2--22-222-5-7--2-2-2-22-222-7-5-------|
-0-0-0--00-000-3-5--0-0-0-00-000-5-3-------|
PM*____________     ____________

--------------------|
--------------------|
--------------------|
-2-2-2--22-222-5-4--|
-2-2-2--22-222-5-4--|
-0-0-0--00-000-3-2--| X2
PM*___________

Chorus
----------------------------------------------------------|
----------------------------------------------------------|
----------------------------------------------------------|
-2-2-2--22-222-2-2--55-55-55-555-55/7--777--77--777-7/5---|
-2-2-2--22-222-2-2--55-55-55-555-55/7--777--77--777-7/5---|
-0-0-0--00-000-0-0--33-33-33-333-33/5--555--55--555-5/3---|

Verse
-------------------------------------------|
-------------------------------------------|
-------------------------------------------|
-2-2-2--22-222-5-7--2-2-2-22-222-7-5-------|
-2-2-2--22-222-5-7--2-2-2-22-222-7-5-------|
-0-0-0--00-000-3-5--0-0-0-00-000-5-3-------|
PM*____________     ____________

--------------------|
--------------------|
--------------------|
-2-2-2--22-222-5-4--|
-2-2-2--22-222-5-4--|
-0-0-0--00-000-3-2--| X2
PM*___________

Chorus
----------------------------------------------------------|
----------------------------------------------------------|
----------------------------------------------------------|
-2-2-2--22-222-2-2--55-55-55-555-55/7--777--77--777-7/5---|
-2-2-2--22-222-2-2--55-55-55-555-55/7--777--77--777-7/5---|
-0-0-0--00-000-0-0--33-33-33-333-33/5--555--55--555-5/3---|

Solo
Chorus
---------------------------------------------------------------|
----------------------------------0-3-5-3-5-3-5-3-5-3-5--------|
-3-3-3-3-3-3-3-3-b5--0-3-5-3--0--3-5-3------------------0-35-3-|
---------------------------------------------------------------|
---------------------------------------------------------------|
---------------------------------------------------------------|

------------------------------------------------------------------------|
-0-3-0-3-b5-3-5-3--5-3-3-5-5-3-5-5-7-8-10-h7-h3-------------------------|
------------------------------------------------------------------------|
-------------------------------------------------2-2-2-22-222--2--------|
-------------------------------------------------0-0-0-00-000--2--------|
---------------------------------------------------------------0--------|
                                              Let Ring 4 beats *

Chorus
----------------------------------------------------------|
----------------------------------------------------------|
----------------------------------------------------------|
-2-2-2--22-222-2-2--55-55-55-555-55/7--777--77--777-7/5---|
-2-2-2--22-222-2-2--55-55-55-555-55/7--777--77--777-7/5---|
-0-0-0--00-000-0-0--33-33-33-333-33/5--555--55--555-5/3---|

Outro
---------------------------------------|
---------------------------------------|
---------------------------------------|
-2-2-2--22-222--5-7--2-2-2-22-222-7-5--|
-2-2-2--22-222--5-7--2-2-2-22-222-7-5--|
-0-0-0--00-000--3-5--0-0-0-00-000-5-3--|
 PM*__________       ____________

-----------------------------------------------|
-----------------------------------------------|
-----------------------------------------------|
--2-2-2-22--222--22--5-5-5-5--7-7-7-7-------2--|
--2-2-2-22--222--22--5-5-5-5--7-7-7-7-------2--|
--0-0-0-00--000--00--3-3-3-3--5-5-5-5-------0--|
 PM*_______________                 *       *
                                    ^       ^


Important: The song above is NOT stored on the Chordie server. The original song is hosted at www.guitaretab.com. Chordie works as a search engine and provides on-the-fly formatting. Chordie does not index songs against artists'/composers' will. To remove this song please click here.

This song is displayed as text-only. Transposing and tuning is only available for chordpro-songs.

Login - add to songbook

Rating click stars to rate

Layout
Accuracy

SHARE PAGE  




You need to log in to post comments