Guitar Tabs, Chords and Lyrics


Untitled   Misc. Unsigned Bands



-------------------------------------------------------------------------------
			     Untitled- Kanesus
-------------------------------------------------------------------------------
Tabbed by: Dr Drew182
Email: Drew_labelle666@hotmail.com

Tuning:

intro/fill

e|------------------------------------------------------------------------------|
B|------------------------------------------------------------------------------|
G|------------------------------------------------------------------------------|
D|---------5-5-5-5-7-7-7-7-5-5-5-5----------------------------------------------|
A|-5-5-5-5-3-3-3-3-5-5-5-5-3-3-3-3----------------------------------------------|
E|-3-3-3-3----------------------------------------------------------------------|

chorus

e|---------------------------------------------------------------------------|
B|---------------------------------------------------------------------------|
G|---------------------------------------------------------------------------|
D|-------------7-7-7-7-7-7-9-9-9-9-9-9-7-7-7-7-7-7---------------------------|
A|-7-7-7-7-7-7-5-5-5-5-5-5-7-7-7-7-7-7-5-5-5-5-5-5---------------------------|
E|-5-5-5-5-5-5---------------------------------------------------------------|

verse

e|---------------------------------------------------------------------------|
B|---------------------------------------------------------------------------|
G|---------------------------------------------------------------------------|
D|-9-9-9-9-9-9---------------------------------------------------------------|
A|-7-7-7-7-7-7-9-9-9-9-9-9-11-11-11-11-11-11-7-7-7-7-7-7---------------------|
E|-------------7-7-7-7-7-7-9—-9—-9—-9—-9—-9--5-5-5-5-5-5---------------------|
-  x x x x x x x x x x x x x  x  x  x  x  x  x x x x x x

outro

(only on the forth time)
e|-5-5-5-5-------------------------(5--)-------------------------------------|
B|-3-3-3-3-7-7-7-7-5-5-5-5--7---5--(3--)-------------------------------------|
G|---------5-5-5-5-3-3-3-3--5---3--------------------------------------------|
D|---------------------------------------------------------------------------|
A|---------------------------------------------------------------------------|
E|---------------------------------------------------------------------------|
order

intro  2x
chorus 2x 
verse  2x
fill   2x  
chorus 2x
verse  2x
fill   2x
chorus 2x
verse  2x
fill   2x
outro  4x


| /  slide up
| \  slide down
| h  hammer-on
| p  pull-off
| ~  vibrato
| +  harmonic
| x  Mute note


Important: The song above is NOT stored on the Chordie server. The original song is hosted at www.guitaretab.com. Chordie works as a search engine and provides on-the-fly formatting. Chordie does not index songs against artists'/composers' will. To remove this song please click here.

This song is displayed as text-only. Transposing and tuning is only available for chordpro-songs.

Login - add to songbook

Rating click stars to rate

Layout
Accuracy

SHARE PAGE  




You need to log in to post comments