Guitar Tabs, Chords and Lyrics


Run Sashy Run   Misc. Unsigned Bands



Tuning: EADGBE

---------------------|
---------------------|
---------------------|
---------------------|
---------------------|
-7777-2222-4444-0000-|

---------------------|
---------------------|
---------------------|
-9999-4444-6666-2222-|
-9999-4444-6666-2222-|
-7777-2222-4444-0000-|

---------------------|
---------------------|
---------------------|
-9999-4444-6666-2222-|
-9999-4444-6666-2222-|
-7777-2222-4444-0000-|
P.M..................

--------------------|
--------------------|
--------------------|
-7--------6---------|
-7--------6---------|
-5--------4---------|

-----------------|
-----------------|
-----------------|
-2-2-444-6-6-6-6-|
-2-2-444-6-6-6-6-|


Important: The song above is NOT stored on the Chordie server. The original song is hosted at www.guitaretab.com. Chordie works as a search engine and provides on-the-fly formatting. Chordie does not index songs against artists'/composers' will. To remove this song please click here.

This song is displayed as text-only. Transposing and tuning is only available for chordpro-songs.

Login - add to songbook

Rating click stars to rate

Layout
Accuracy

SHARE PAGE  




You need to log in to post comments