Guitar Tabs, Chords and Lyrics


White Blanket   Misc. Unsigned Bands



       verse
e:------------------------------------------------------------------|
B:------------------------------------------------------------------|
G:----5-57-5-5----------------5-57-5-----------5---------5-575------| 
D:---7-7----7----5-57-5-5----7-7--------5-5---7----5-5--7-7---7-----|
A:-8-----------7-7-----7---8-----------7-7---8----7-7--8------------|
E:------------8----------------------8-----------8------------------|  
chorus
e:------------------------|
B:------------------------|
G:---5---------5-575------| 
D:--7----5-5--7-7---7-----|
A:-8----7-7--8------------|


Important: The song above is NOT stored on the Chordie server. The original song is hosted at www.guitaretab.com. Chordie works as a search engine and provides on-the-fly formatting. Chordie does not index songs against artists'/composers' will. To remove this song please click here.

This song is displayed as text-only. Transposing and tuning is only available for chordpro-songs.

Login - add to songbook

Rating click stars to rate

Layout
Accuracy

SHARE PAGE  




You need to log in to post comments