Guitar Tabs, Chords and Lyrics


Suffering   Misc. Unsigned Bands



Tuning:C,G,C,F,A,D|Drop C

Intro:
D|--------------------------------------------------------|
A|----------------------x4--------------------------------|
F|--------------------------------------------------------|
C|-0-0----------------------------------------------0~----|
G|-0-0--8p0-5p0-3p0-5p0-3p0-2p0---------2p0-3p0-2p0-0~----|
C|-0-0--------------------------3p0-5p0-------------0~----|
PM - -             
then...
D|-----------------------------------------------------------------------|
A|-----------------------------------------------------------------------|
F|-----------------------------------------------------------------------|
C|-0-0-----------------------------------------------0-0000333333330000--|
G|-0-0--8p0-5p0-3p0-5p0-3p0-2p0---------2p0-3p0-2p0--0-0000111111110000--|
C|-0-0--------------------------3p0-5p0--------------0-0000--------0000--|
PM - -                                                 ----        ----

verse prt.1
D|--------------------|-----------------------------------------|
A|--------------------|-----------------x5----------------------|
F|--------------------|-----------------------------------------|
C|-0-3-2---0-2-3/5-0--|--0-0-----------------9p0---------0-0-0--|
G|-0-3-2---0-2-3/5-0--|--0-0--5p0-7-8p0-10p0-----3p0-2p0-0-0-0--|
C|-0-3-2---0-2-3/5-0--|--0-0-----------------------------0-0-0--|
PM - -     - -           - -
then...prt.2
D|-------------------------------------------------------------------------|
A|-----------------------------x4------------------------------------------|
F|-------------------------------------------------------------------------|
C|------------------------------------------------------------------0-2-5-3|
G|---0--8p0-5p0-3p0-5p0-3p0-2p0---------2p0-3p0-2p0-----2p0-3p0-2p0-0-2-5-3|
C|-0----------------------------3p0-5p0-------------2p0-------------0-2-5-3|
PM - -    
Chorus:
D|----------------------------------------------------------|
A|--------------------x2------------------------------------|
F|----------------------------------------------------------|
C|-5-0-2-0-3--77777--99999---77777---33-5--7777-3x-5x-2x-0~-|
G|-5-0-2-0-3--77777--77777---55555---33-5--7777-3x-5x-2x-0~-|
C|-5-0-2-0-3--77777--77777---55555---33-5--7777-3x-5x-2x-0~-|
PM   -   -                           --

2nd verse 
D|---------------------------------------------------------------------|
A|---------------------------------------------------------------------|
F|---------------------------------------------------------------------|
C|------0-0----------------9p0-----------------------------0-0000-0000---|
G|------0-0-5p0-7-8p0-10p0-----3p0-2p0---0-8p0-5p0-3p0-2p0-0-0000-0000---|
C|-/10\-0-0----------------------------0-------------------0-0000-0000---|
PM      - -                            - -                   ---- ----
D|--------------------------------------|
A|--------------------------------------|
F|--------------------------------------|
C|-0000--0000-5~-0000--0000-3-2-7-5-----|
G|-0000--0000-5~-0000--0000-3-2-7-5-----|
C|-0000--0000-5~-0000--0000-3-2-7-5-----|
PM ----  ----    ----  ----
bridge
D|------------------------------------------------------------------|
A|------------------------------------------------------------------|
F|-15-14-14/12/10-10/12~--15-14-14/10-10/12-12/10-10-14-14/15-15/10~|
C|--x--x--x--x--x--x--x----x--x--x--x--x--x--x--x--x--x--x--x--x--x-|
G|-13-12-12/10/-8--8/10~--13-12-12/-8--8/10-10/-8--8-10-10/13-13/-8~|
C|------------------------------------------------------------------|




Important: The song above is NOT stored on the Chordie server. The original song is hosted at www.guitaretab.com. Chordie works as a search engine and provides on-the-fly formatting. Chordie does not index songs against artists'/composers' will. To remove this song please click here.

This song is displayed as text-only. Transposing and tuning is only available for chordpro-songs.

Login - add to songbook

Rating click stars to rate

Layout
Accuracy

SHARE PAGE  




You need to log in to post comments