Guitar Tabs, Chords and Lyrics


Tomorrow  Misc. Unsigned Bands

[D2/B]Still [D2/C#]     I [D]      s[G]eek You,
[D2/B] I    [D2/C#]       [D]be - li[G]eve true,
[D2/B]That  [D2/C#]  You    [D] will [G] do,
Whateve[G]r is best for me to go through


Chorus: Guitar 1: rhythm, Guitar 2: riff 3
(to worry about tomorrow)
[B5]Tomorrow can worry abo[A6/G#]ut tomorrow           [G6]            [F6#]
[B5]I’m conten[A6/G#]t with today [G6]        [F6#]


Verse 2: Bass riff: 5x
Why even speed ahead in the thoughts in my head
For I can never truly know what’s awaiting
And maybe I’ve said a few things to regret
But now I’m patient and waiting


Section 3: Guitar 1: picking chords Guitar 2: picking inverted chords
As the days [Bm]seem faster in [G]reaching dis[A]aster          [G]
Oh I [Bm]don’t wanna be alone[G]       [A]     [G]
Oh these days s[Bm]eem faster in r[G]eaching disas[A]ter            [G]
And I d[Bm]on’t wanna be alone[G]      [A]   Yeah[G]    [Em]


Chorus 2: Guitar 1: rhythm Guitar 2: Riff 3 (2x)
[B5]Tomorrow can worry abo[A6/G#]ut tomorrow          [G6]            [F6#]
[B5]I’m conten[A6/G#]t with today [G6]        [F6#]
[B5]The bitter year[A6/G#]s hold excess sorrow    [G6]            [F6#]
[B5]‘Cause I’m content wit[A6/G#]h today       [G6]        [A6]


Bridge:
[B6]   Running around,  [F6#]    I[G6] got myself in this[Em] again           [B6]
   It’s har[F6#]d to p[G6]retend, (that) this all means [A6]nothing             [B6]
   It’s jus[F6#]t noth[G6]ing, but it’s surrender[A6/G#] in fear


Break: Guitar 3: rhythm Guitar 2: ebow riff
[D2/B]      [-]   [Em]    [-]   [G]   [-]   [D2/F#]       [-]   [D2/B]                  [Em]      I’m conte[G]nt with today

(Chorus)

(Solo)


Ebow Riff: Guitar 2 with ebow
e|------------------10~~-----------|
B|-12~~\10~~\7~~10~~----12~~/17~~--|
G|---------------------------------|
D|---------------------------------|
A|---------------------------------|
E|---------------------------------|



Riff 1: (guitar 3, tuning: D-G-C-F-A-e, capo on 2nd fret)
Notes relative to capo
e|---------------------------------
A|---------------------------------
F|--------------2------------------
C|-------11-------------5-----4----
G|-----9--------------7------------
D|-0-7------0-3---0-5-----0-3------



Riff 2: (acoustic guitar, tuning D-G-C-F-A-e, capo on 2nd fret)
Notes relative to capo
e|---------------------------|
A|---------------------------|
F|------------2--------------|
C|-----11---0-------5-----4--|
G|---9------------7-----5----|
D|-7------3-----5-----3------|


Solo: Guitar 2
e|-10-----------------10----10-10-12/14-12-10-12-10----------
B|----12-10-12--10-12----12-------------------------12b14----
G|-----------------------------------------------------------
D|-----------------------------------------------------------
A|-----------------------------------------------------------
E|-----------------------------------------------------------
e|-10p9p7-10-------10----12----12----14----14----14-12-10-12-
B|-----------10-10----10----10----10----10----10-------------
G|-----------------------------------------------------------
D|-----------------------------------------------------------
A|-----------------------------------------------------------
E|-----------------------------------------------------------
e|----12----14-12-10-12-12-12-10~~~--------------------------
B|-10----10--------------------------------------------------
G|-----------------------------------------------------------
D|-----------------------------------------------------------
A|-----------------------------------------------------------
E|-----------------------------------------------------------


Bass Riff:
G|---------------------------|
D|---------------------------|
A|---9-7-5---5----7-5-4---4--|
E|-7-------3----5-------3----|


Riff 3: Guitar 2
e|-12-10-12-10-12-10-10-12-10-12-10-12-10-10--|
B|--------------------------------------------|
G|--------------------------------------------|  (4x)
D|--------------------------------------------|
A|--------------------------------------------|
E|--------------------------------------------|



D2/B = x-2-0-2-3-(0)
D2/C# = x-4-0-2-3-(0)
D = x-x-0-2-3-(0)
G = 3-x-0-0-3-3
B5 = x-2-4-4-x-x
A6/G# = 4-7-6-x-x-x
G6 = 3-5-5-x-x-x
F6# = 2-4-4-x-x-x
Bm (section 3) = x-2-4-4-3-2
G (section 3) = 3-5-5-4-3-3
A (section 3) = 5-7-7-6-5-5
B6 = 7-9-9-x-x-x
D2/B (break) = x-2-0-2-3-3
Em (break) = 0-2-2-0-3-3
G (break) = 3-x-0-0-3-3
D2/F# (break) = 2-x-0-2-3-3


If you'd like an easier to read tab just email me at bencharity@gmail.com

Important: The song above is NOT stored on the Chordie server. The original song is hosted at www.guitaretab.com. Chordie works as a search engine and provides on-the-fly formatting. Chordie does not index songs against artists'/composers' will. To remove this song please click here.

Text color:
Chord color:
Chord grids: 
Font size:    
Page size: 

A A6 B5 B6 Bm D D2/B D2/C# D2/F# Em G G6
variations - click chord images

Login - add to songbook

Transpose chords

Tuning

Rating click stars to rate

Layout
Accuracy

SHARE PAGE  




You need to log in to post comments