A Grizzley Summer

Misc. Unsigned Bands

--------------------------------------------------------------------------------|   

--------------------------------------------------------------------------------|

 CAmEmG6
e|-0---     e|-0---     e|-0---     e|-0---|
B|-1---     B|-1---     B|-0---     B|-0---|
G|-0---     G|-2---     G|-0---     G|-0---|
D|-2---     D|-2---     D|-2---     D|-0---|
A|-3---     A|-0---     A|-2---     A|-2---|
E|-3---     E|-----     E|-0---     E|-3---|


Intro

 CAmEmG6
e|-0----0-----0----0-----0----0-----0----0---------------------------------|
B|-1---1-1----1---1-1----0---0-0----0---0-0--------------------------------|
G|-0--0---0---2--2---2---0--0---0---0--0---0-------------------------------|
D|-2----------2----------2----------0--------------------------------------|
A|-3----------0----------2----------2--------------------------------------|
E|-3---------------------0----------3--------------------------------------|


 CAm
 I sit all day watching grizzley bears
 EmG6
 Enchanting me with there grizzley stares
 CAm
 There trample me without a care
 EmG6
 Oooh those grizzley bears.
 CAm
 I love Grizzley Bears    I love Grizzley Bears
 EmG6
 I love Grizzley bears    I love girzzley bears
 CAm
 I love Grizzley Bears    I love Grizzley Bears
 EmG6
 I love Grizzley bears    I love girzzley bears
 CAm
 I run and scream, Theres Blood everywhere
 EmG6
 You can't escape from those grizzley bears
 CAm
 Catching salmon down by the stream
 EmG6
 Killing people as they let out a scream.
 CAm
 I love Grizzley Bears    I love Grizzley Bears
 EmG6
 I love Grizzley bears    I love girzzley bears
 CAm
 I love Grizzley Bears    I love Grizzley Bears
 EmG6
 I love Grizzley bears    I love girzzley bears
 E5G5A5C5
 I   fucking   hate   Grizzley bears
 E5G5A5C5
 No   more   fucking   stares
 E5G5A5C5
 I fucking shot a grizzley bear             

I hate grizzley bears, I hate grizzley bears, I hate grizzley beeeeears!

e|-------------------------------------------------------------------------|
B|-------------------------------------------------------------------------|
G|-------------------------------------------------------------------------|
D|-------------------------------------------------------------------------|

A|\\\\\\\\\\\\\\\\\\\\\\\\\\\\\\\\\\\\\\\\\\\\\\\\\\\\\\\\\\\\\\\\\\\\\\\\\|
E|\\\\\\\\\\\\\\\\\\\\\\\\\\\\\\\\\\\\\\\\\\\\\\\\\\\\\\\\\\\\\\\\\\\\\\\\\|
(With Pick)

e|-------------------------------------------------------------------------|
B|-------------------------------------------------------------------------|
G|--5+(with floating bridge whammy, starting dived then going up)----------|
D|-------------------------------------------------------------------------|
A|-------------------------------------------------------------------------|
E|-------------------------------------------------------------------------|


| / slide up
| \ slide down
| h hammer-on
| p pull-off
| ~ vibrato
| + harmonic
| x Mute note
============================================================================


A5 Am C C5 E5 Em G5 G6
variations - click chord images
Transpose chords:
Tuning:
Cool service:
View: Size:
A  A  A
Rating:
Layout:
  • Currently 1.8/5 Stars.
  • 1
  • 2
  • 3
  • 4
  • 5
 
Accuracy:
  • Currently 1.9/5 Stars.
  • 1
  • 2
  • 3
  • 4
  • 5
 
click stars to rate
Chordie recommends:
Check out these online guitar lessons
Songbook:
Login to add this song to your songbook
Support the artist
Preview/buy this song
MSN Music
Why this non-profit ad?

 
login to add comments/video/corrections