Guitar Tabs, Chords and Lyrics


The Real Messiah   Misc. Unsigned Bands



-------------------------------|
The Real Messiah- Planet Sass--|
Tabbed by: Zach Sedefian
Email: 32141234123123

Tuning:12312312312312312312312312312312312312312

e|----------------------------------------------------------------------------|
B|----------------------------------------------------------------------------|
G|----------------------------------------------------------------------------|
D|--5--5--5--5--5-------------------------------------------------------------|
A|--3--3--3--3--3--5--7--7--7--7--7-------------------------------------------|
E|-----------------3--5--5--5--5--5-------------------------------------------|


e|----------------------------------------------------------------------------|
B|----------------------------------------------------------------------------|
G|----------------------------------------------------------------------------|
D|--5--5--5--5--5--7----------------------------------------------------------|
A|--3--3--3--3--3--5--7--7--7--7--7-------------------------------------------|


Important: The song above is NOT stored on the Chordie server. The original song is hosted at www.guitaretab.com. Chordie works as a search engine and provides on-the-fly formatting. Chordie does not index songs against artists'/composers' will. To remove this song please click here.

This song is displayed as text-only. Transposing and tuning is only available for chordpro-songs.

Login - add to songbook

Rating click stars to rate

Layout
Accuracy

SHARE PAGE  




You need to log in to post comments