Guitar Tabs, Chords and Lyrics


Smash Tv   Misc. Unsigned Bands



-----------------------------------------------------------------------
			     Smash TV- Shot Memory
-----------------------------------------------------------------------
Tabbed by: Patrick
Email:nf

Tuning: normal

e|---------------------------------------------------------------------|
B|---------------------------------------------------------------------|
G|---------------------------------------------------------------------|
D|---------------7-7-7-7-7-7---5-5-------------------------------------|
A|-3-------------5-5-5-5-5-5---3-3-5—------X9--------------------------|
E|-1-------------------------------3-----------------------------------|
     Let Ring…
e|---------------------------------------------------------------------|
B|---------------------------------------------------------------------|
G|---------------------------------------------------------------------|
D|---------------------------------------------------------------------|
A|-7-7-7-7-7-7-7-7---9-------------------------------------------------|
E|-5-5-5-5-5-5-5-5---7-------------------------------------------------|

e|---------------------------------------------------------------------|
B|---------------------------------------------------------------------|
G|---------------------------------------------------------------------|
D|-9-9-9-9-9-9--7-7----------------------------------------------------|
A|-7-7-7-7-7-7--5-5-7------X3------------------------------------------|
E|------------------5--------------------------------------------------|

e|---------------------------------------------------------------------|
B|---------------------------------------------------------------------|
G|---------------------------------------------------------------------|
D|---------------------------------------------------------------------|
A|-9-9-9-9-9-9-9--7-7--2----X3-------5—X9---7--------------------------|
E|-7-7-7-7-7-7-7--5-5--0-------------3------5--------------------------|

Repeat starting with third line. Then…
e|---------------------------------------------------------------------|
B|---------------------------------------------------------------------|
G|---------------------------------------------------------------------|
D|-------------------------------------------7-7-7-7-7-7---------------|
A|-5—X7--7-X7--5—X7--7—X7---5--/-7—X6--------5-5-5-5-5-5-7-7-5---------|
E|-3-----5-----3-----5------3-/-5------------------------5-5-3---------|



Important: The song above is NOT stored on the Chordie server. The original song is hosted at www.guitaretab.com. Chordie works as a search engine and provides on-the-fly formatting. Chordie does not index songs against artists'/composers' will. To remove this song please click here.

This song is displayed as text-only. Transposing and tuning is only available for chordpro-songs.

Login - add to songbook

Rating click stars to rate

Layout
Accuracy

SHARE PAGE  




You need to log in to post comments