Guitar Tabs, Chords and Lyrics


Doana   Misc. Unsigned Bands



This is a song written because the guitarist hates the new techno music. The song starts 
sounding like techno due to flange or some effect.

CGCFAD - Tuning

Guitar 1 lead
Guitar 2 rhythm

guitar 1
----------------------------------------------------|
--12--12--12----------------------------------------|
--------------10-10--10--12--12--12-----------------| x10
------------------------------------12--12-12-12-12-|
----------------------------------------------------|
----------------------------------------------------|
Guitar 2
----------------------------------------------|
----------------------------------------------|
----------------------------------------------| x9 (starts 2nd time)
---5--5--5------------------------------------|
---3--3--3----------5--5--5--0--0-0-0-0-------|


Important: The song above is NOT stored on the Chordie server. The original song is hosted at www.guitaretab.com. Chordie works as a search engine and provides on-the-fly formatting. Chordie does not index songs against artists'/composers' will. To remove this song please click here.

This song is displayed as text-only. Transposing and tuning is only available for chordpro-songs.

Login - add to songbook

Rating click stars to rate

Layout
Accuracy

SHARE PAGE  




You need to log in to post comments